Contact Info / Websites

Entry #3

:D L0L

2008-12-24 11:37:25 by Edwad-elric

:D

GO FUCK YOURSELF :D


Comments

You must be logged in to comment on this post.


FlunkCombatFlunkCombat

2008-12-24 17:10:37

Headline News

Megadeth's 2008 Christmas Card Contest 1st Place Winner - Rick Orlando

click to view all winners

view all winners


December 23, 2008 - FORMER MEGADETH CO-MANAGER DIES OF ESOPHAGEAL CANCER

FORMER MEGADETH CO-MANAGER DIES OF ESOPHAGEAL CANCER

Bud Prager, President of E.S.P. Management, Inc. - who co-managed Megadeth from 1995 to 2001, helping them to their first major commercial radio success and co-writing a number of songs - lost his year-plus long battle with esophageal cancer at his home in Montauk, N.Y. on December 22. Dave Mustaine was reached today and will be commenting on Bud's passing tomorrow. MORE

December 22, 2008 - DAVE MUSTAINE: "NEW YEAR COMING!"

DAVE MUSTAINE: "NEW YEAR COMING!"

Dave Mustaine has posted the following update: "As you have no doubt seen a lot of posting by the boys and I here at the Official Megadeth site, and those of you in the know, know that our beloved webmaster has our MySpace, Facebook, iLike and other sites all linked together - so to speak - and there is a fantastic synergy between all of these portals for Megadeth info, interaction, and direct involvement of your favorite band member." MORE

December 21, 2008 - DAVE MUSTAINE'S CELEBRITY PLAYLIST ON IMEEM.COM

DAVE MUSTAINE

Check out Dave Mustaine's celebrity playlist on imeeem.com! Listen to Dave's audio intros explaining why he chose the songs for his playlist. Songs including, "Epic" by Faith No More, "Victim of Changes" by Judas Priest, "Rock Bottom" by U.F.O. and more! imeem is a social network that enables users to discover, interact and express themselves with media, including music, video and photos, and form connections based on shared tastes and interests. Check out Dave's playlist HERE

December 20, 2008 - MEGADETH'S VIDEO WIDGET - LEAVE MESSAGES & VIDEOS!

MEGADETH

Check out what other fans have to say, leave your own messages, and see exclusive video messages from Dave Mustaine on Megadeth.com's video widget! "A consistent innovator in music and technology, Dave Mustaine will be the first musician to utilize a fan-centric video widget to keep in touch with fans while on the road. Fans are able to video message directly with the band online, and with their cell phones - creating a highly personalized experience." To get started, register HERE

December 19, 2008 - DAVE MUSTAINE PRIVILEGED TO CONTRIBUTE TO 'DOOR OF FAITH'

DAVE MUSTAINE PRIVILEGED TO CONTRIBUTE TO

Dave Mustaine has posted the following update on the Megadeth Forums: "I just wanted to take the time to inform you of my privilege to be able to make a contribution today to the Door of Faith orphanage in Mexico. Thanks to all of the Net Worth Coffee Brokers customers and 'Mustaine Coffee Crew Members,' we were able to come through for the orphanage again this year." MORE

December 18, 2008 - DAVE MUSTAINE: "IT'S OFFICIAL, WE HAVE NINE SONGS"

DAVE MUSTAINE: "IT

Dave Mustaine has posted the following update on the Megadeth Forums: "It is the end of another busy and productive day here at Vic's garage. James is walking out the door as I type and Shawn is in going over old riffs and comparing stuff to "KIMB" to make sure that we aren't copying ourselves. It is official, we have nine (9) songs and sixteen (16) new ideas for additional songs. Please don't get excited though, because I am only contracted to record twelve (12) songs for the eleven (11) domestic tracks and one (1) additional track for Japan." MORE

December 18, 2008 - SHAWN DROVER: "KNEE-DEEP IN PROCESS OF WRITING NEW ALBUM"

SHAWN DROVER: "KNEE-DEEP IN PROCESS OF WRITING NEW ALBUM"

Shawn Drover has posted the following update on his myspace site: "...as I write this, I "think" we have 8 1/2 tunes written, and I like them all - a good musical variation thus far as well - Some fast stuff, mid paced stuff, and some slow heavy tunes as well for good balance. We are on a good path right now and are in a good creative mind-frame - certainly us having our own recording facility helps matters. This is our "home away from home" and we all like it." MORE

Megadeth RSS News Feed - right click - copy shortcut - paste to RSS Reader What is RSS?

» News Archive


REGISTER HERE TO VIEW EXCLUSIVE UPDATES & SEND YOUR OWN MESSAGES


Megadeth on the Map




Killing Road Priest Feast


Megadeth on DVD GIGANTOUR 2 DVD AND CD

That One Night: Live In Buenos Aires

Megadeth Warchest


Roadrunner Records

Megadeth Myspace

MegaFanClub

Megadeth on iLike

Gigantour.com

The Live Line





The Dave Mustaine Signature Series by Dean Guitars - click for dealers


Megamerch New - Killing Is My Business Zip Up Hoody

New - Classic Megadeth Belt Buckle



eBay MerchMegadeth eBay Store Listed Items



Net Worth Coffee Brokers NWCB Holiday Bundle


AskDaveMustaine.com

AskDaveMustaine.com

A NEW INTERACTIVE FAN EXPERIENCE!
To support the release of Megadeth's ultimate boxed set Warchest, we have developed a new interactive fan experience. Dave Mustaine has recorded videotaped answers to more than 100 questions, ranging from the basic "How tall are you?" to the more specialized "What is the origin of Vic Rattlehead?," resulting in pure metal gold! Dave comments: "I found it fun to do and quite rewarding when I hear how many people have laughed out loud for this." Check it out and ask Dave Mustaine your questions at www.AskDaveMustaine.com

United Abominations in Stores Now


Megafanclub

2008 MegaFanClub T-Shirt Art2008 MegaFanClub Premium Package THE OFFICIAL MEGADETH MEGAFANCLUB gives you the opportunity as fans to gain even more access! A membership provides a fan package including an exclusive fan club shirt, hand signed 8X10 photo, set of Megadeth guitar picks, deluxe metal Megadeth dogtag, band postcards, and Vic Rattlehead '08 sticker! Also included is one year access to the MFC website with exclusive media, private forums and chat room, live chats with the band, fan club store, auctions, contests, giveaways, blogs, news and photos, pre-sale concert tickets, your chance to meet Megadeth, and more!!
*No New Memberships Currently




Endorsements


Scorpion
ScorpioN
Every Monday, secret guest writer ScorpioN answers your questions, giving you the inside scoop on all things Megadeth! Click here for the latest release.


Megafan of the Week


FlunkCombatFlunkCombat

2008-12-24 17:10:46

Headline News

Megadeth's 2008 Christmas Card Contest 1st Place Winner - Rick Orlando

click to view all winners

view all winners


December 23, 2008 - FORMER MEGADETH CO-MANAGER DIES OF ESOPHAGEAL CANCER

FORMER MEGADETH CO-MANAGER DIES OF ESOPHAGEAL CANCER

Bud Prager, President of E.S.P. Management, Inc. - who co-managed Megadeth from 1995 to 2001, helping them to their first major commercial radio success and co-writing a number of songs - lost his year-plus long battle with esophageal cancer at his home in Montauk, N.Y. on December 22. Dave Mustaine was reached today and will be commenting on Bud's passing tomorrow. MORE

December 22, 2008 - DAVE MUSTAINE: "NEW YEAR COMING!"

DAVE MUSTAINE: "NEW YEAR COMING!"

Dave Mustaine has posted the following update: "As you have no doubt seen a lot of posting by the boys and I here at the Official Megadeth site, and those of you in the know, know that our beloved webmaster has our MySpace, Facebook, iLike and other sites all linked together - so to speak - and there is a fantastic synergy between all of these portals for Megadeth info, interaction, and direct involvement of your favorite band member." MORE

December 21, 2008 - DAVE MUSTAINE'S CELEBRITY PLAYLIST ON IMEEM.COM

DAVE MUSTAINE

Check out Dave Mustaine's celebrity playlist on imeeem.com! Listen to Dave's audio intros explaining why he chose the songs for his playlist. Songs including, "Epic" by Faith No More, "Victim of Changes" by Judas Priest, "Rock Bottom" by U.F.O. and more! imeem is a social network that enables users to discover, interact and express themselves with media, including music, video and photos, and form connections based on shared tastes and interests. Check out Dave's playlist HERE

December 20, 2008 - MEGADETH'S VIDEO WIDGET - LEAVE MESSAGES & VIDEOS!

MEGADETH

Check out what other fans have to say, leave your own messages, and see exclusive video messages from Dave Mustaine on Megadeth.com's video widget! "A consistent innovator in music and technology, Dave Mustaine will be the first musician to utilize a fan-centric video widget to keep in touch with fans while on the road. Fans are able to video message directly with the band online, and with their cell phones - creating a highly personalized experience." To get started, register HERE

December 19, 2008 - DAVE MUSTAINE PRIVILEGED TO CONTRIBUTE TO 'DOOR OF FAITH'

DAVE MUSTAINE PRIVILEGED TO CONTRIBUTE TO

Dave Mustaine has posted the following update on the Megadeth Forums: "I just wanted to take the time to inform you of my privilege to be able to make a contribution today to the Door of Faith orphanage in Mexico. Thanks to all of the Net Worth Coffee Brokers customers and 'Mustaine Coffee Crew Members,' we were able to come through for the orphanage again this year." MORE

December 18, 2008 - DAVE MUSTAINE: "IT'S OFFICIAL, WE HAVE NINE SONGS"

DAVE MUSTAINE: "IT

Dave Mustaine has posted the following update on the Megadeth Forums: "It is the end of another busy and productive day here at Vic's garage. James is walking out the door as I type and Shawn is in going over old riffs and comparing stuff to "KIMB" to make sure that we aren't copying ourselves. It is official, we have nine (9) songs and sixteen (16) new ideas for additional songs. Please don't get excited though, because I am only contracted to record twelve (12) songs for the eleven (11) domestic tracks and one (1) additional track for Japan." MORE

December 18, 2008 - SHAWN DROVER: "KNEE-DEEP IN PROCESS OF WRITING NEW ALBUM"

SHAWN DROVER: "KNEE-DEEP IN PROCESS OF WRITING NEW ALBUM"

Shawn Drover has posted the following update on his myspace site: "...as I write this, I "think" we have 8 1/2 tunes written, and I like them all - a good musical variation thus far as well - Some fast stuff, mid paced stuff, and some slow heavy tunes as well for good balance. We are on a good path right now and are in a good creative mind-frame - certainly us having our own recording facility helps matters. This is our "home away from home" and we all like it." MORE

Megadeth RSS News Feed - right click - copy shortcut - paste to RSS Reader What is RSS?

» News Archive


REGISTER HERE TO VIEW EXCLUSIVE UPDATES & SEND YOUR OWN MESSAGES


Megadeth on the Map




Killing Road Priest Feast


Megadeth on DVD GIGANTOUR 2 DVD AND CD

That One Night: Live In Buenos Aires

Megadeth Warchest


Roadrunner Records

Megadeth Myspace

MegaFanClub

Megadeth on iLike

Gigantour.com

The Live Line





The Dave Mustaine Signature Series by Dean Guitars - click for dealers


Megamerch New - Killing Is My Business Zip Up Hoody

New - Classic Megadeth Belt Buckle



eBay MerchMegadeth eBay Store Listed Items



Net Worth Coffee Brokers NWCB Holiday Bundle


AskDaveMustaine.com

AskDaveMustaine.com

A NEW INTERACTIVE FAN EXPERIENCE!
To support the release of Megadeth's ultimate boxed set Warchest, we have developed a new interactive fan experience. Dave Mustaine has recorded videotaped answers to more than 100 questions, ranging from the basic "How tall are you?" to the more specialized "What is the origin of Vic Rattlehead?," resulting in pure metal gold! Dave comments: "I found it fun to do and quite rewarding when I hear how many people have laughed out loud for this." Check it out and ask Dave Mustaine your questions at www.AskDaveMustaine.com

United Abominations in Stores Now


Megafanclub

2008 MegaFanClub T-Shirt Art2008 MegaFanClub Premium Package THE OFFICIAL MEGADETH MEGAFANCLUB gives you the opportunity as fans to gain even more access! A membership provides a fan package including an exclusive fan club shirt, hand signed 8X10 photo, set of Megadeth guitar picks, deluxe metal Megadeth dogtag, band postcards, and Vic Rattlehead '08 sticker! Also included is one year access to the MFC website with exclusive media, private forums and chat room, live chats with the band, fan club store, auctions, contests, giveaways, blogs, news and photos, pre-sale concert tickets, your chance to meet Megadeth, and more!!
*No New Memberships Currently




Endorsements


Scorpion
ScorpioN
Every Monday, secret guest writer ScorpioN answers your questions, giving you the inside scoop on all things Megadeth! Click here for the latest release.


Megafan of the Week


FlunkCombatFlunkCombat

2008-12-24 17:10:55

Headline News

Megadeth's 2008 Christmas Card Contest 1st Place Winner - Rick Orlando

click to view all winners

view all winners


December 23, 2008 - FORMER MEGADETH CO-MANAGER DIES OF ESOPHAGEAL CANCER

FORMER MEGADETH CO-MANAGER DIES OF ESOPHAGEAL CANCER

Bud Prager, President of E.S.P. Management, Inc. - who co-managed Megadeth from 1995 to 2001, helping them to their first major commercial radio success and co-writing a number of songs - lost his year-plus long battle with esophageal cancer at his home in Montauk, N.Y. on December 22. Dave Mustaine was reached today and will be commenting on Bud's passing tomorrow. MORE

December 22, 2008 - DAVE MUSTAINE: "NEW YEAR COMING!"

DAVE MUSTAINE: "NEW YEAR COMING!"

Dave Mustaine has posted the following update: "As you have no doubt seen a lot of posting by the boys and I here at the Official Megadeth site, and those of you in the know, know that our beloved webmaster has our MySpace, Facebook, iLike and other sites all linked together - so to speak - and there is a fantastic synergy between all of these portals for Megadeth info, interaction, and direct involvement of your favorite band member." MORE

December 21, 2008 - DAVE MUSTAINE'S CELEBRITY PLAYLIST ON IMEEM.COM

DAVE MUSTAINE

Check out Dave Mustaine's celebrity playlist on imeeem.com! Listen to Dave's audio intros explaining why he chose the songs for his playlist. Songs including, "Epic" by Faith No More, "Victim of Changes" by Judas Priest, "Rock Bottom" by U.F.O. and more! imeem is a social network that enables users to discover, interact and express themselves with media, including music, video and photos, and form connections based on shared tastes and interests. Check out Dave's playlist HERE

December 20, 2008 - MEGADETH'S VIDEO WIDGET - LEAVE MESSAGES & VIDEOS!

MEGADETH

Check out what other fans have to say, leave your own messages, and see exclusive video messages from Dave Mustaine on Megadeth.com's video widget! "A consistent innovator in music and technology, Dave Mustaine will be the first musician to utilize a fan-centric video widget to keep in touch with fans while on the road. Fans are able to video message directly with the band online, and with their cell phones - creating a highly personalized experience." To get started, register HERE

December 19, 2008 - DAVE MUSTAINE PRIVILEGED TO CONTRIBUTE TO 'DOOR OF FAITH'

DAVE MUSTAINE PRIVILEGED TO CONTRIBUTE TO

Dave Mustaine has posted the following update on the Megadeth Forums: "I just wanted to take the time to inform you of my privilege to be able to make a contribution today to the Door of Faith orphanage in Mexico. Thanks to all of the Net Worth Coffee Brokers customers and 'Mustaine Coffee Crew Members,' we were able to come through for the orphanage again this year." MORE

December 18, 2008 - DAVE MUSTAINE: "IT'S OFFICIAL, WE HAVE NINE SONGS"

DAVE MUSTAINE: "IT

Dave Mustaine has posted the following update on the Megadeth Forums: "It is the end of another busy and productive day here at Vic's garage. James is walking out the door as I type and Shawn is in going over old riffs and comparing stuff to "KIMB" to make sure that we aren't copying ourselves. It is official, we have nine (9) songs and sixteen (16) new ideas for additional songs. Please don't get excited though, because I am only contracted to record twelve (12) songs for the eleven (11) domestic tracks and one (1) additional track for Japan." MORE

December 18, 2008 - SHAWN DROVER: "KNEE-DEEP IN PROCESS OF WRITING NEW ALBUM"

SHAWN DROVER: "KNEE-DEEP IN PROCESS OF WRITING NEW ALBUM"

Shawn Drover has posted the following update on his myspace site: "...as I write this, I "think" we have 8 1/2 tunes written, and I like them all - a good musical variation thus far as well - Some fast stuff, mid paced stuff, and some slow heavy tunes as well for good balance. We are on a good path right now and are in a good creative mind-frame - certainly us having our own recording facility helps matters. This is our "home away from home" and we all like it." MORE

Megadeth RSS News Feed - right click - copy shortcut - paste to RSS Reader What is RSS?

» News Archive


REGISTER HERE TO VIEW EXCLUSIVE UPDATES & SEND YOUR OWN MESSAGES


Megadeth on the Map




Killing Road Priest Feast


Megadeth on DVD GIGANTOUR 2 DVD AND CD

That One Night: Live In Buenos Aires

Megadeth Warchest


Roadrunner Records

Megadeth Myspace

MegaFanClub

Megadeth on iLike

Gigantour.com

The Live Line





The Dave Mustaine Signature Series by Dean Guitars - click for dealers


Megamerch New - Killing Is My Business Zip Up Hoody

New - Classic Megadeth Belt Buckle



eBay MerchMegadeth eBay Store Listed Items



Net Worth Coffee Brokers NWCB Holiday Bundle


AskDaveMustaine.com

AskDaveMustaine.com

A NEW INTERACTIVE FAN EXPERIENCE!
To support the release of Megadeth's ultimate boxed set Warchest, we have developed a new interactive fan experience. Dave Mustaine has recorded videotaped answers to more than 100 questions, ranging from the basic "How tall are you?" to the more specialized "What is the origin of Vic Rattlehead?," resulting in pure metal gold! Dave comments: "I found it fun to do and quite rewarding when I hear how many people have laughed out loud for this." Check it out and ask Dave Mustaine your questions at www.AskDaveMustaine.com

United Abominations in Stores Now


Megafanclub

2008 MegaFanClub T-Shirt Art2008 MegaFanClub Premium Package THE OFFICIAL MEGADETH MEGAFANCLUB gives you the opportunity as fans to gain even more access! A membership provides a fan package including an exclusive fan club shirt, hand signed 8X10 photo, set of Megadeth guitar picks, deluxe metal Megadeth dogtag, band postcards, and Vic Rattlehead '08 sticker! Also included is one year access to the MFC website with exclusive media, private forums and chat room, live chats with the band, fan club store, auctions, contests, giveaways, blogs, news and photos, pre-sale concert tickets, your chance to meet Megadeth, and more!!
*No New Memberships Currently




Endorsements


Scorpion
ScorpioN
Every Monday, secret guest writer ScorpioN answers your questions, giving you the inside scoop on all things Megadeth! Click here for the latest release.


Megafan of the Week


FlunkCombatFlunkCombat

2008-12-24 17:11:05

Headline News

Megadeth's 2008 Christmas Card Contest 1st Place Winner - Rick Orlando

click to view all winners

view all winners


December 23, 2008 - FORMER MEGADETH CO-MANAGER DIES OF ESOPHAGEAL CANCER

FORMER MEGADETH CO-MANAGER DIES OF ESOPHAGEAL CANCER

Bud Prager, President of E.S.P. Management, Inc. - who co-managed Megadeth from 1995 to 2001, helping them to their first major commercial radio success and co-writing a number of songs - lost his year-plus long battle with esophageal cancer at his home in Montauk, N.Y. on December 22. Dave Mustaine was reached today and will be commenting on Bud's passing tomorrow. MORE

December 22, 2008 - DAVE MUSTAINE: "NEW YEAR COMING!"

DAVE MUSTAINE: "NEW YEAR COMING!"

Dave Mustaine has posted the following update: "As you have no doubt seen a lot of posting by the boys and I here at the Official Megadeth site, and those of you in the know, know that our beloved webmaster has our MySpace, Facebook, iLike and other sites all linked together - so to speak - and there is a fantastic synergy between all of these portals for Megadeth info, interaction, and direct involvement of your favorite band member." MORE

December 21, 2008 - DAVE MUSTAINE'S CELEBRITY PLAYLIST ON IMEEM.COM

DAVE MUSTAINE

Check out Dave Mustaine's celebrity playlist on imeeem.com! Listen to Dave's audio intros explaining why he chose the songs for his playlist. Songs including, "Epic" by Faith No More, "Victim of Changes" by Judas Priest, "Rock Bottom" by U.F.O. and more! imeem is a social network that enables users to discover, interact and express themselves with media, including music, video and photos, and form connections based on shared tastes and interests. Check out Dave's playlist HERE

December 20, 2008 - MEGADETH'S VIDEO WIDGET - LEAVE MESSAGES & VIDEOS!

MEGADETH

Check out what other fans have to say, leave your own messages, and see exclusive video messages from Dave Mustaine on Megadeth.com's video widget! "A consistent innovator in music and technology, Dave Mustaine will be the first musician to utilize a fan-centric video widget to keep in touch with fans while on the road. Fans are able to video message directly with the band online, and with their cell phones - creating a highly personalized experience." To get started, register HERE

December 19, 2008 - DAVE MUSTAINE PRIVILEGED TO CONTRIBUTE TO 'DOOR OF FAITH'

DAVE MUSTAINE PRIVILEGED TO CONTRIBUTE TO

Dave Mustaine has posted the following update on the Megadeth Forums: "I just wanted to take the time to inform you of my privilege to be able to make a contribution today to the Door of Faith orphanage in Mexico. Thanks to all of the Net Worth Coffee Brokers customers and 'Mustaine Coffee Crew Members,' we were able to come through for the orphanage again this year." MORE

December 18, 2008 - DAVE MUSTAINE: "IT'S OFFICIAL, WE HAVE NINE SONGS"

DAVE MUSTAINE: "IT

Dave Mustaine has posted the following update on the Megadeth Forums: "It is the end of another busy and productive day here at Vic's garage. James is walking out the door as I type and Shawn is in going over old riffs and comparing stuff to "KIMB" to make sure that we aren't copying ourselves. It is official, we have nine (9) songs and sixteen (16) new ideas for additional songs. Please don't get excited though, because I am only contracted to record twelve (12) songs for the eleven (11) domestic tracks and one (1) additional track for Japan." MORE

December 18, 2008 - SHAWN DROVER: "KNEE-DEEP IN PROCESS OF WRITING NEW ALBUM"

SHAWN DROVER: "KNEE-DEEP IN PROCESS OF WRITING NEW ALBUM"

Shawn Drover has posted the following update on his myspace site: "...as I write this, I "think" we have 8 1/2 tunes written, and I like them all - a good musical variation thus far as well - Some fast stuff, mid paced stuff, and some slow heavy tunes as well for good balance. We are on a good path right now and are in a good creative mind-frame - certainly us having our own recording facility helps matters. This is our "home away from home" and we all like it." MORE

Megadeth RSS News Feed - right click - copy shortcut - paste to RSS Reader What is RSS?

» News Archive


REGISTER HERE TO VIEW EXCLUSIVE UPDATES & SEND YOUR OWN MESSAGES


Megadeth on the Map




Killing Road Priest Feast


Megadeth on DVD GIGANTOUR 2 DVD AND CD

That One Night: Live In Buenos Aires

Megadeth Warchest


Roadrunner Records

Megadeth Myspace

MegaFanClub

Megadeth on iLike

Gigantour.com

The Live Line





The Dave Mustaine Signature Series by Dean Guitars - click for dealers


Megamerch New - Killing Is My Business Zip Up Hoody

New - Classic Megadeth Belt Buckle



eBay MerchMegadeth eBay Store Listed Items



Net Worth Coffee Brokers NWCB Holiday Bundle


AskDaveMustaine.com

AskDaveMustaine.com

A NEW INTERACTIVE FAN EXPERIENCE!
To support the release of Megadeth's ultimate boxed set Warchest, we have developed a new interactive fan experience. Dave Mustaine has recorded videotaped answers to more than 100 questions, ranging from the basic "How tall are you?" to the more specialized "What is the origin of Vic Rattlehead?," resulting in pure metal gold! Dave comments: "I found it fun to do and quite rewarding when I hear how many people have laughed out loud for this." Check it out and ask Dave Mustaine your questions at www.AskDaveMustaine.com

United Abominations in Stores Now


Megafanclub

2008 MegaFanClub T-Shirt Art2008 MegaFanClub Premium Package THE OFFICIAL MEGADETH MEGAFANCLUB gives you the opportunity as fans to gain even more access! A membership provides a fan package including an exclusive fan club shirt, hand signed 8X10 photo, set of Megadeth guitar picks, deluxe metal Megadeth dogtag, band postcards, and Vic Rattlehead '08 sticker! Also included is one year access to the MFC website with exclusive media, private forums and chat room, live chats with the band, fan club store, auctions, contests, giveaways, blogs, news and photos, pre-sale concert tickets, your chance to meet Megadeth, and more!!
*No New Memberships Currently




Endorsements


Scorpion
ScorpioN
Every Monday, secret guest writer ScorpioN answers your questions, giving you the inside scoop on all things Megadeth! Click here for the latest release.


Megafan of the Week


FlunkCombatFlunkCombat

2008-12-24 17:11:15

Headline News

Megadeth's 2008 Christmas Card Contest 1st Place Winner - Rick Orlando

click to view all winners

view all winners


December 23, 2008 - FORMER MEGADETH CO-MANAGER DIES OF ESOPHAGEAL CANCER

FORMER MEGADETH CO-MANAGER DIES OF ESOPHAGEAL CANCER

Bud Prager, President of E.S.P. Management, Inc. - who co-managed Megadeth from 1995 to 2001, helping them to their first major commercial radio success and co-writing a number of songs - lost his year-plus long battle with esophageal cancer at his home in Montauk, N.Y. on December 22. Dave Mustaine was reached today and will be commenting on Bud's passing tomorrow. MORE

December 22, 2008 - DAVE MUSTAINE: "NEW YEAR COMING!"

DAVE MUSTAINE: "NEW YEAR COMING!"

Dave Mustaine has posted the following update: "As you have no doubt seen a lot of posting by the boys and I here at the Official Megadeth site, and those of you in the know, know that our beloved webmaster has our MySpace, Facebook, iLike and other sites all linked together - so to speak - and there is a fantastic synergy between all of these portals for Megadeth info, interaction, and direct involvement of your favorite band member." MORE

December 21, 2008 - DAVE MUSTAINE'S CELEBRITY PLAYLIST ON IMEEM.COM

DAVE MUSTAINE

Check out Dave Mustaine's celebrity playlist on imeeem.com! Listen to Dave's audio intros explaining why he chose the songs for his playlist. Songs including, "Epic" by Faith No More, "Victim of Changes" by Judas Priest, "Rock Bottom" by U.F.O. and more! imeem is a social network that enables users to discover, interact and express themselves with media, including music, video and photos, and form connections based on shared tastes and interests. Check out Dave's playlist HERE

December 20, 2008 - MEGADETH'S VIDEO WIDGET - LEAVE MESSAGES & VIDEOS!

MEGADETH

Check out what other fans have to say, leave your own messages, and see exclusive video messages from Dave Mustaine on Megadeth.com's video widget! "A consistent innovator in music and technology, Dave Mustaine will be the first musician to utilize a fan-centric video widget to keep in touch with fans while on the road. Fans are able to video message directly with the band online, and with their cell phones - creating a highly personalized experience." To get started, register HERE

December 19, 2008 - DAVE MUSTAINE PRIVILEGED TO CONTRIBUTE TO 'DOOR OF FAITH'

DAVE MUSTAINE PRIVILEGED TO CONTRIBUTE TO

Dave Mustaine has posted the following update on the Megadeth Forums: "I just wanted to take the time to inform you of my privilege to be able to make a contribution today to the Door of Faith orphanage in Mexico. Thanks to all of the Net Worth Coffee Brokers customers and 'Mustaine Coffee Crew Members,' we were able to come through for the orphanage again this year." MORE

December 18, 2008 - DAVE MUSTAINE: "IT'S OFFICIAL, WE HAVE NINE SONGS"

DAVE MUSTAINE: "IT

Dave Mustaine has posted the following update on the Megadeth Forums: "It is the end of another busy and productive day here at Vic's garage. James is walking out the door as I type and Shawn is in going over old riffs and comparing stuff to "KIMB" to make sure that we aren't copying ourselves. It is official, we have nine (9) songs and sixteen (16) new ideas for additional songs. Please don't get excited though, because I am only contracted to record twelve (12) songs for the eleven (11) domestic tracks and one (1) additional track for Japan." MORE

December 18, 2008 - SHAWN DROVER: "KNEE-DEEP IN PROCESS OF WRITING NEW ALBUM"

SHAWN DROVER: "KNEE-DEEP IN PROCESS OF WRITING NEW ALBUM"

Shawn Drover has posted the following update on his myspace site: "...as I write this, I "think" we have 8 1/2 tunes written, and I like them all - a good musical variation thus far as well - Some fast stuff, mid paced stuff, and some slow heavy tunes as well for good balance. We are on a good path right now and are in a good creative mind-frame - certainly us having our own recording facility helps matters. This is our "home away from home" and we all like it." MORE

Megadeth RSS News Feed - right click - copy shortcut - paste to RSS Reader What is RSS?

» News Archive


REGISTER HERE TO VIEW EXCLUSIVE UPDATES & SEND YOUR OWN MESSAGES


Megadeth on the Map




Killing Road Priest Feast


Megadeth on DVD GIGANTOUR 2 DVD AND CD

That One Night: Live In Buenos Aires

Megadeth Warchest


Roadrunner Records

Megadeth Myspace

MegaFanClub

Megadeth on iLike

Gigantour.com

The Live Line





The Dave Mustaine Signature Series by Dean Guitars - click for dealers


Megamerch New - Killing Is My Business Zip Up Hoody

New - Classic Megadeth Belt Buckle



eBay MerchMegadeth eBay Store Listed Items



Net Worth Coffee Brokers NWCB Holiday Bundle


AskDaveMustaine.com

AskDaveMustaine.com

A NEW INTERACTIVE FAN EXPERIENCE!
To support the release of Megadeth's ultimate boxed set Warchest, we have developed a new interactive fan experience. Dave Mustaine has recorded videotaped answers to more than 100 questions, ranging from the basic "How tall are you?" to the more specialized "What is the origin of Vic Rattlehead?," resulting in pure metal gold! Dave comments: "I found it fun to do and quite rewarding when I hear how many people have laughed out loud for this." Check it out and ask Dave Mustaine your questions at www.AskDaveMustaine.com

United Abominations in Stores Now


Megafanclub

2008 MegaFanClub T-Shirt Art2008 MegaFanClub Premium Package THE OFFICIAL MEGADETH MEGAFANCLUB gives you the opportunity as fans to gain even more access! A membership provides a fan package including an exclusive fan club shirt, hand signed 8X10 photo, set of Megadeth guitar picks, deluxe metal Megadeth dogtag, band postcards, and Vic Rattlehead '08 sticker! Also included is one year access to the MFC website with exclusive media, private forums and chat room, live chats with the band, fan club store, auctions, contests, giveaways, blogs, news and photos, pre-sale concert tickets, your chance to meet Megadeth, and more!!
*No New Memberships Currently




Endorsements


Scorpion
ScorpioN
Every Monday, secret guest writer ScorpioN answers your questions, giving you the inside scoop on all things Megadeth! Click here for the latest release.


Megafan of the Week


FlunkCombatFlunkCombat

2008-12-24 17:11:24

Headline News

Megadeth's 2008 Christmas Card Contest 1st Place Winner - Rick Orlando

click to view all winners

view all winners


December 23, 2008 - FORMER MEGADETH CO-MANAGER DIES OF ESOPHAGEAL CANCER

FORMER MEGADETH CO-MANAGER DIES OF ESOPHAGEAL CANCER

Bud Prager, President of E.S.P. Management, Inc. - who co-managed Megadeth from 1995 to 2001, helping them to their first major commercial radio success and co-writing a number of songs - lost his year-plus long battle with esophageal cancer at his home in Montauk, N.Y. on December 22. Dave Mustaine was reached today and will be commenting on Bud's passing tomorrow. MORE

December 22, 2008 - DAVE MUSTAINE: "NEW YEAR COMING!"

DAVE MUSTAINE: "NEW YEAR COMING!"

Dave Mustaine has posted the following update: "As you have no doubt seen a lot of posting by the boys and I here at the Official Megadeth site, and those of you in the know, know that our beloved webmaster has our MySpace, Facebook, iLike and other sites all linked together - so to speak - and there is a fantastic synergy between all of these portals for Megadeth info, interaction, and direct involvement of your favorite band member." MORE

December 21, 2008 - DAVE MUSTAINE'S CELEBRITY PLAYLIST ON IMEEM.COM

DAVE MUSTAINE

Check out Dave Mustaine's celebrity playlist on imeeem.com! Listen to Dave's audio intros explaining why he chose the songs for his playlist. Songs including, "Epic" by Faith No More, "Victim of Changes" by Judas Priest, "Rock Bottom" by U.F.O. and more! imeem is a social network that enables users to discover, interact and express themselves with media, including music, video and photos, and form connections based on shared tastes and interests. Check out Dave's playlist HERE

December 20, 2008 - MEGADETH'S VIDEO WIDGET - LEAVE MESSAGES & VIDEOS!

MEGADETH

Check out what other fans have to say, leave your own messages, and see exclusive video messages from Dave Mustaine on Megadeth.com's video widget! "A consistent innovator in music and technology, Dave Mustaine will be the first musician to utilize a fan-centric video widget to keep in touch with fans while on the road. Fans are able to video message directly with the band online, and with their cell phones - creating a highly personalized experience." To get started, register HERE

December 19, 2008 - DAVE MUSTAINE PRIVILEGED TO CONTRIBUTE TO 'DOOR OF FAITH'

DAVE MUSTAINE PRIVILEGED TO CONTRIBUTE TO

Dave Mustaine has posted the following update on the Megadeth Forums: "I just wanted to take the time to inform you of my privilege to be able to make a contribution today to the Door of Faith orphanage in Mexico. Thanks to all of the Net Worth Coffee Brokers customers and 'Mustaine Coffee Crew Members,' we were able to come through for the orphanage again this year." MORE

December 18, 2008 - DAVE MUSTAINE: "IT'S OFFICIAL, WE HAVE NINE SONGS"

DAVE MUSTAINE: "IT

Dave Mustaine has posted the following update on the Megadeth Forums: "It is the end of another busy and productive day here at Vic's garage. James is walking out the door as I type and Shawn is in going over old riffs and comparing stuff to "KIMB" to make sure that we aren't copying ourselves. It is official, we have nine (9) songs and sixteen (16) new ideas for additional songs. Please don't get excited though, because I am only contracted to record twelve (12) songs for the eleven (11) domestic tracks and one (1) additional track for Japan." MORE

December 18, 2008 - SHAWN DROVER: "KNEE-DEEP IN PROCESS OF WRITING NEW ALBUM"

SHAWN DROVER: "KNEE-DEEP IN PROCESS OF WRITING NEW ALBUM"

Shawn Drover has posted the following update on his myspace site: "...as I write this, I "think" we have 8 1/2 tunes written, and I like them all - a good musical variation thus far as well - Some fast stuff, mid paced stuff, and some slow heavy tunes as well for good balance. We are on a good path right now and are in a good creative mind-frame - certainly us having our own recording facility helps matters. This is our "home away from home" and we all like it." MORE

Megadeth RSS News Feed - right click - copy shortcut - paste to RSS Reader What is RSS?

» News Archive


REGISTER HERE TO VIEW EXCLUSIVE UPDATES & SEND YOUR OWN MESSAGES


Megadeth on the Map




Killing Road Priest Feast


Megadeth on DVD GIGANTOUR 2 DVD AND CD

That One Night: Live In Buenos Aires

Megadeth Warchest


Roadrunner Records

Megadeth Myspace

MegaFanClub

Megadeth on iLike

Gigantour.com

The Live Line





The Dave Mustaine Signature Series by Dean Guitars - click for dealers


Megamerch New - Killing Is My Business Zip Up Hoody

New - Classic Megadeth Belt Buckle



eBay MerchMegadeth eBay Store Listed Items



Net Worth Coffee Brokers NWCB Holiday Bundle


AskDaveMustaine.com

AskDaveMustaine.com

A NEW INTERACTIVE FAN EXPERIENCE!
To support the release of Megadeth's ultimate boxed set Warchest, we have developed a new interactive fan experience. Dave Mustaine has recorded videotaped answers to more than 100 questions, ranging from the basic "How tall are you?" to the more specialized "What is the origin of Vic Rattlehead?," resulting in pure metal gold! Dave comments: "I found it fun to do and quite rewarding when I hear how many people have laughed out loud for this." Check it out and ask Dave Mustaine your questions at www.AskDaveMustaine.com

United Abominations in Stores Now


Megafanclub

2008 MegaFanClub T-Shirt Art2008 MegaFanClub Premium Package THE OFFICIAL MEGADETH MEGAFANCLUB gives you the opportunity as fans to gain even more access! A membership provides a fan package including an exclusive fan club shirt, hand signed 8X10 photo, set of Megadeth guitar picks, deluxe metal Megadeth dogtag, band postcards, and Vic Rattlehead '08 sticker! Also included is one year access to the MFC website with exclusive media, private forums and chat room, live chats with the band, fan club store, auctions, contests, giveaways, blogs, news and photos, pre-sale concert tickets, your chance to meet Megadeth, and more!!
*No New Memberships Currently




Endorsements


Scorpion
ScorpioN
Every Monday, secret guest writer ScorpioN answers your questions, giving you the inside scoop on all things Megadeth! Click here for the latest release.


Megafan of the Week


FlunkCombatFlunkCombat

2008-12-24 17:11:34

Headline News

Megadeth's 2008 Christmas Card Contest 1st Place Winner - Rick Orlando

click to view all winners

view all winners


December 23, 2008 - FORMER MEGADETH CO-MANAGER DIES OF ESOPHAGEAL CANCER

FORMER MEGADETH CO-MANAGER DIES OF ESOPHAGEAL CANCER

Bud Prager, President of E.S.P. Management, Inc. - who co-managed Megadeth from 1995 to 2001, helping them to their first major commercial radio success and co-writing a number of songs - lost his year-plus long battle with esophageal cancer at his home in Montauk, N.Y. on December 22. Dave Mustaine was reached today and will be commenting on Bud's passing tomorrow. MORE

December 22, 2008 - DAVE MUSTAINE: "NEW YEAR COMING!"

DAVE MUSTAINE: "NEW YEAR COMING!"

Dave Mustaine has posted the following update: "As you have no doubt seen a lot of posting by the boys and I here at the Official Megadeth site, and those of you in the know, know that our beloved webmaster has our MySpace, Facebook, iLike and other sites all linked together - so to speak - and there is a fantastic synergy between all of these portals for Megadeth info, interaction, and direct involvement of your favorite band member." MORE

December 21, 2008 - DAVE MUSTAINE'S CELEBRITY PLAYLIST ON IMEEM.COM

DAVE MUSTAINE

Check out Dave Mustaine's celebrity playlist on imeeem.com! Listen to Dave's audio intros explaining why he chose the songs for his playlist. Songs including, "Epic" by Faith No More, "Victim of Changes" by Judas Priest, "Rock Bottom" by U.F.O. and more! imeem is a social network that enables users to discover, interact and express themselves with media, including music, video and photos, and form connections based on shared tastes and interests. Check out Dave's playlist HERE

December 20, 2008 - MEGADETH'S VIDEO WIDGET - LEAVE MESSAGES & VIDEOS!

MEGADETH

Check out what other fans have to say, leave your own messages, and see exclusive video messages from Dave Mustaine on Megadeth.com's video widget! "A consistent innovator in music and technology, Dave Mustaine will be the first musician to utilize a fan-centric video widget to keep in touch with fans while on the road. Fans are able to video message directly with the band online, and with their cell phones - creating a highly personalized experience." To get started, register HERE

December 19, 2008 - DAVE MUSTAINE PRIVILEGED TO CONTRIBUTE TO 'DOOR OF FAITH'

DAVE MUSTAINE PRIVILEGED TO CONTRIBUTE TO

Dave Mustaine has posted the following update on the Megadeth Forums: "I just wanted to take the time to inform you of my privilege to be able to make a contribution today to the Door of Faith orphanage in Mexico. Thanks to all of the Net Worth Coffee Brokers customers and 'Mustaine Coffee Crew Members,' we were able to come through for the orphanage again this year." MORE

December 18, 2008 - DAVE MUSTAINE: "IT'S OFFICIAL, WE HAVE NINE SONGS"

DAVE MUSTAINE: "IT

Dave Mustaine has posted the following update on the Megadeth Forums: "It is the end of another busy and productive day here at Vic's garage. James is walking out the door as I type and Shawn is in going over old riffs and comparing stuff to "KIMB" to make sure that we aren't copying ourselves. It is official, we have nine (9) songs and sixteen (16) new ideas for additional songs. Please don't get excited though, because I am only contracted to record twelve (12) songs for the eleven (11) domestic tracks and one (1) additional track for Japan." MORE

December 18, 2008 - SHAWN DROVER: "KNEE-DEEP IN PROCESS OF WRITING NEW ALBUM"

SHAWN DROVER: "KNEE-DEEP IN PROCESS OF WRITING NEW ALBUM"

Shawn Drover has posted the following update on his myspace site: "...as I write this, I "think" we have 8 1/2 tunes written, and I like them all - a good musical variation thus far as well - Some fast stuff, mid paced stuff, and some slow heavy tunes as well for good balance. We are on a good path right now and are in a good creative mind-frame - certainly us having our own recording facility helps matters. This is our "home away from home" and we all like it." MORE

Megadeth RSS News Feed - right click - copy shortcut - paste to RSS Reader What is RSS?

» News Archive


REGISTER HERE TO VIEW EXCLUSIVE UPDATES & SEND YOUR OWN MESSAGES


Megadeth on the Map




Killing Road Priest Feast


Megadeth on DVD GIGANTOUR 2 DVD AND CD

That One Night: Live In Buenos Aires

Megadeth Warchest


Roadrunner Records

Megadeth Myspace

MegaFanClub

Megadeth on iLike

Gigantour.com

The Live Line





The Dave Mustaine Signature Series by Dean Guitars - click for dealers


Megamerch New - Killing Is My Business Zip Up Hoody

New - Classic Megadeth Belt Buckle



eBay MerchMegadeth eBay Store Listed Items



Net Worth Coffee Brokers NWCB Holiday Bundle


AskDaveMustaine.com

AskDaveMustaine.com

A NEW INTERACTIVE FAN EXPERIENCE!
To support the release of Megadeth's ultimate boxed set Warchest, we have developed a new interactive fan experience. Dave Mustaine has recorded videotaped answers to more than 100 questions, ranging from the basic "How tall are you?" to the more specialized "What is the origin of Vic Rattlehead?," resulting in pure metal gold! Dave comments: "I found it fun to do and quite rewarding when I hear how many people have laughed out loud for this." Check it out and ask Dave Mustaine your questions at www.AskDaveMustaine.com

United Abominations in Stores Now


Megafanclub

2008 MegaFanClub T-Shirt Art2008 MegaFanClub Premium Package THE OFFICIAL MEGADETH MEGAFANCLUB gives you the opportunity as fans to gain even more access! A membership provides a fan package including an exclusive fan club shirt, hand signed 8X10 photo, set of Megadeth guitar picks, deluxe metal Megadeth dogtag, band postcards, and Vic Rattlehead '08 sticker! Also included is one year access to the MFC website with exclusive media, private forums and chat room, live chats with the band, fan club store, auctions, contests, giveaways, blogs, news and photos, pre-sale concert tickets, your chance to meet Megadeth, and more!!
*No New Memberships Currently




Endorsements


Scorpion
ScorpioN
Every Monday, secret guest writer ScorpioN answers your questions, giving you the inside scoop on all things Megadeth! Click here for the latest release.


Megafan of the Week


FlunkCombatFlunkCombat

2008-12-24 17:11:44

Headline News

Megadeth's 2008 Christmas Card Contest 1st Place Winner - Rick Orlando

click to view all winners

view all winners


December 23, 2008 - FORMER MEGADETH CO-MANAGER DIES OF ESOPHAGEAL CANCER

FORMER MEGADETH CO-MANAGER DIES OF ESOPHAGEAL CANCER

Bud Prager, President of E.S.P. Management, Inc. - who co-managed Megadeth from 1995 to 2001, helping them to their first major commercial radio success and co-writing a number of songs - lost his year-plus long battle with esophageal cancer at his home in Montauk, N.Y. on December 22. Dave Mustaine was reached today and will be commenting on Bud's passing tomorrow. MORE

December 22, 2008 - DAVE MUSTAINE: "NEW YEAR COMING!"

DAVE MUSTAINE: "NEW YEAR COMING!"

Dave Mustaine has posted the following update: "As you have no doubt seen a lot of posting by the boys and I here at the Official Megadeth site, and those of you in the know, know that our beloved webmaster has our MySpace, Facebook, iLike and other sites all linked together - so to speak - and there is a fantastic synergy between all of these portals for Megadeth info, interaction, and direct involvement of your favorite band member." MORE

December 21, 2008 - DAVE MUSTAINE'S CELEBRITY PLAYLIST ON IMEEM.COM

DAVE MUSTAINE

Check out Dave Mustaine's celebrity playlist on imeeem.com! Listen to Dave's audio intros explaining why he chose the songs for his playlist. Songs including, "Epic" by Faith No More, "Victim of Changes" by Judas Priest, "Rock Bottom" by U.F.O. and more! imeem is a social network that enables users to discover, interact and express themselves with media, including music, video and photos, and form connections based on shared tastes and interests. Check out Dave's playlist HERE

December 20, 2008 - MEGADETH'S VIDEO WIDGET - LEAVE MESSAGES & VIDEOS!

MEGADETH

Check out what other fans have to say, leave your own messages, and see exclusive video messages from Dave Mustaine on Megadeth.com's video widget! "A consistent innovator in music and technology, Dave Mustaine will be the first musician to utilize a fan-centric video widget to keep in touch with fans while on the road. Fans are able to video message directly with the band online, and with their cell phones - creating a highly personalized experience." To get started, register HERE

December 19, 2008 - DAVE MUSTAINE PRIVILEGED TO CONTRIBUTE TO 'DOOR OF FAITH'

DAVE MUSTAINE PRIVILEGED TO CONTRIBUTE TO

Dave Mustaine has posted the following update on the Megadeth Forums: "I just wanted to take the time to inform you of my privilege to be able to make a contribution today to the Door of Faith orphanage in Mexico. Thanks to all of the Net Worth Coffee Brokers customers and 'Mustaine Coffee Crew Members,' we were able to come through for the orphanage again this year." MORE

December 18, 2008 - DAVE MUSTAINE: "IT'S OFFICIAL, WE HAVE NINE SONGS"

DAVE MUSTAINE: "IT

Dave Mustaine has posted the following update on the Megadeth Forums: "It is the end of another busy and productive day here at Vic's garage. James is walking out the door as I type and Shawn is in going over old riffs and comparing stuff to "KIMB" to make sure that we aren't copying ourselves. It is official, we have nine (9) songs and sixteen (16) new ideas for additional songs. Please don't get excited though, because I am only contracted to record twelve (12) songs for the eleven (11) domestic tracks and one (1) additional track for Japan." MORE

December 18, 2008 - SHAWN DROVER: "KNEE-DEEP IN PROCESS OF WRITING NEW ALBUM"

SHAWN DROVER: "KNEE-DEEP IN PROCESS OF WRITING NEW ALBUM"

Shawn Drover has posted the following update on his myspace site: "...as I write this, I "think" we have 8 1/2 tunes written, and I like them all - a good musical variation thus far as well - Some fast stuff, mid paced stuff, and some slow heavy tunes as well for good balance. We are on a good path right now and are in a good creative mind-frame - certainly us having our own recording facility helps matters. This is our "home away from home" and we all like it." MORE

Megadeth RSS News Feed - right click - copy shortcut - paste to RSS Reader What is RSS?

» News Archive


REGISTER HERE TO VIEW EXCLUSIVE UPDATES & SEND YOUR OWN MESSAGES


Megadeth on the Map




Killing Road Priest Feast


Megadeth on DVD GIGANTOUR 2 DVD AND CD

That One Night: Live In Buenos Aires

Megadeth Warchest


Roadrunner Records

Megadeth Myspace

MegaFanClub

Megadeth on iLike

Gigantour.com

The Live Line





The Dave Mustaine Signature Series by Dean Guitars - click for dealers


Megamerch New - Killing Is My Business Zip Up Hoody

New - Classic Megadeth Belt Buckle



eBay MerchMegadeth eBay Store Listed Items



Net Worth Coffee Brokers NWCB Holiday Bundle


AskDaveMustaine.com

AskDaveMustaine.com

A NEW INTERACTIVE FAN EXPERIENCE!
To support the release of Megadeth's ultimate boxed set Warchest, we have developed a new interactive fan experience. Dave Mustaine has recorded videotaped answers to more than 100 questions, ranging from the basic "How tall are you?" to the more specialized "What is the origin of Vic Rattlehead?," resulting in pure metal gold! Dave comments: "I found it fun to do and quite rewarding when I hear how many people have laughed out loud for this." Check it out and ask Dave Mustaine your questions at www.AskDaveMustaine.com

United Abominations in Stores Now


Megafanclub

2008 MegaFanClub T-Shirt Art2008 MegaFanClub Premium Package THE OFFICIAL MEGADETH MEGAFANCLUB gives you the opportunity as fans to gain even more access! A membership provides a fan package including an exclusive fan club shirt, hand signed 8X10 photo, set of Megadeth guitar picks, deluxe metal Megadeth dogtag, band postcards, and Vic Rattlehead '08 sticker! Also included is one year access to the MFC website with exclusive media, private forums and chat room, live chats with the band, fan club store, auctions, contests, giveaways, blogs, news and photos, pre-sale concert tickets, your chance to meet Megadeth, and more!!
*No New Memberships Currently




Endorsements


Scorpion
ScorpioN
Every Monday, secret guest writer ScorpioN answers your questions, giving you the inside scoop on all things Megadeth! Click here for the latest release.


Megafan of the Week


FlunkCombatFlunkCombat

2008-12-24 17:11:55

Headline News

Megadeth's 2008 Christmas Card Contest 1st Place Winner - Rick Orlando

click to view all winners

view all winners


December 23, 2008 - FORMER MEGADETH CO-MANAGER DIES OF ESOPHAGEAL CANCER

FORMER MEGADETH CO-MANAGER DIES OF ESOPHAGEAL CANCER

Bud Prager, President of E.S.P. Management, Inc. - who co-managed Megadeth from 1995 to 2001, helping them to their first major commercial radio success and co-writing a number of songs - lost his year-plus long battle with esophageal cancer at his home in Montauk, N.Y. on December 22. Dave Mustaine was reached today and will be commenting on Bud's passing tomorrow. MORE

December 22, 2008 - DAVE MUSTAINE: "NEW YEAR COMING!"

DAVE MUSTAINE: "NEW YEAR COMING!"

Dave Mustaine has posted the following update: "As you have no doubt seen a lot of posting by the boys and I here at the Official Megadeth site, and those of you in the know, know that our beloved webmaster has our MySpace, Facebook, iLike and other sites all linked together - so to speak - and there is a fantastic synergy between all of these portals for Megadeth info, interaction, and direct involvement of your favorite band member." MORE

December 21, 2008 - DAVE MUSTAINE'S CELEBRITY PLAYLIST ON IMEEM.COM

DAVE MUSTAINE

Check out Dave Mustaine's celebrity playlist on imeeem.com! Listen to Dave's audio intros explaining why he chose the songs for his playlist. Songs including, "Epic" by Faith No More, "Victim of Changes" by Judas Priest, "Rock Bottom" by U.F.O. and more! imeem is a social network that enables users to discover, interact and express themselves with media, including music, video and photos, and form connections based on shared tastes and interests. Check out Dave's playlist HERE

December 20, 2008 - MEGADETH'S VIDEO WIDGET - LEAVE MESSAGES & VIDEOS!

MEGADETH

Check out what other fans have to say, leave your own messages, and see exclusive video messages from Dave Mustaine on Megadeth.com's video widget! "A consistent innovator in music and technology, Dave Mustaine will be the first musician to utilize a fan-centric video widget to keep in touch with fans while on the road. Fans are able to video message directly with the band online, and with their cell phones - creating a highly personalized experience." To get started, register HERE

December 19, 2008 - DAVE MUSTAINE PRIVILEGED TO CONTRIBUTE TO 'DOOR OF FAITH'

DAVE MUSTAINE PRIVILEGED TO CONTRIBUTE TO

Dave Mustaine has posted the following update on the Megadeth Forums: "I just wanted to take the time to inform you of my privilege to be able to make a contribution today to the Door of Faith orphanage in Mexico. Thanks to all of the Net Worth Coffee Brokers customers and 'Mustaine Coffee Crew Members,' we were able to come through for the orphanage again this year." MORE

December 18, 2008 - DAVE MUSTAINE: "IT'S OFFICIAL, WE HAVE NINE SONGS"

DAVE MUSTAINE: "IT

Dave Mustaine has posted the following update on the Megadeth Forums: "It is the end of another busy and productive day here at Vic's garage. James is walking out the door as I type and Shawn is in going over old riffs and comparing stuff to "KIMB" to make sure that we aren't copying ourselves. It is official, we have nine (9) songs and sixteen (16) new ideas for additional songs. Please don't get excited though, because I am only contracted to record twelve (12) songs for the eleven (11) domestic tracks and one (1) additional track for Japan." MORE

December 18, 2008 - SHAWN DROVER: "KNEE-DEEP IN PROCESS OF WRITING NEW ALBUM"

SHAWN DROVER: "KNEE-DEEP IN PROCESS OF WRITING NEW ALBUM"

Shawn Drover has posted the following update on his myspace site: "...as I write this, I "think" we have 8 1/2 tunes written, and I like them all - a good musical variation thus far as well - Some fast stuff, mid paced stuff, and some slow heavy tunes as well for good balance. We are on a good path right now and are in a good creative mind-frame - certainly us having our own recording facility helps matters. This is our "home away from home" and we all like it." MORE

Megadeth RSS News Feed - right click - copy shortcut - paste to RSS Reader What is RSS?

» News Archive


REGISTER HERE TO VIEW EXCLUSIVE UPDATES & SEND YOUR OWN MESSAGES


Megadeth on the Map




Killing Road Priest Feast


Megadeth on DVD GIGANTOUR 2 DVD AND CD

That One Night: Live In Buenos Aires

Megadeth Warchest


Roadrunner Records

Megadeth Myspace

MegaFanClub

Megadeth on iLike

Gigantour.com

The Live Line





The Dave Mustaine Signature Series by Dean Guitars - click for dealers


Megamerch New - Killing Is My Business Zip Up Hoody

New - Classic Megadeth Belt Buckle



eBay MerchMegadeth eBay Store Listed Items



Net Worth Coffee Brokers NWCB Holiday Bundle


AskDaveMustaine.com

AskDaveMustaine.com

A NEW INTERACTIVE FAN EXPERIENCE!
To support the release of Megadeth's ultimate boxed set Warchest, we have developed a new interactive fan experience. Dave Mustaine has recorded videotaped answers to more than 100 questions, ranging from the basic "How tall are you?" to the more specialized "What is the origin of Vic Rattlehead?," resulting in pure metal gold! Dave comments: "I found it fun to do and quite rewarding when I hear how many people have laughed out loud for this." Check it out and ask Dave Mustaine your questions at www.AskDaveMustaine.com

United Abominations in Stores Now


Megafanclub

2008 MegaFanClub T-Shirt Art2008 MegaFanClub Premium Package THE OFFICIAL MEGADETH MEGAFANCLUB gives you the opportunity as fans to gain even more access! A membership provides a fan package including an exclusive fan club shirt, hand signed 8X10 photo, set of Megadeth guitar picks, deluxe metal Megadeth dogtag, band postcards, and Vic Rattlehead '08 sticker! Also included is one year access to the MFC website with exclusive media, private forums and chat room, live chats with the band, fan club store, auctions, contests, giveaways, blogs, news and photos, pre-sale concert tickets, your chance to meet Megadeth, and more!!
*No New Memberships Currently




Endorsements


Scorpion
ScorpioN
Every Monday, secret guest writer ScorpioN answers your questions, giving you the inside scoop on all things Megadeth! Click here for the latest release.


Megafan of the Week


FlunkCombatFlunkCombat

2008-12-24 17:12:07

Headline News

Megadeth's 2008 Christmas Card Contest 1st Place Winner - Rick Orlando

click to view all winners

view all winners


December 23, 2008 - FORMER MEGADETH CO-MANAGER DIES OF ESOPHAGEAL CANCER

FORMER MEGADETH CO-MANAGER DIES OF ESOPHAGEAL CANCER

Bud Prager, President of E.S.P. Management, Inc. - who co-managed Megadeth from 1995 to 2001, helping them to their first major commercial radio success and co-writing a number of songs - lost his year-plus long battle with esophageal cancer at his home in Montauk, N.Y. on December 22. Dave Mustaine was reached today and will be commenting on Bud's passing tomorrow. MORE

December 22, 2008 - DAVE MUSTAINE: "NEW YEAR COMING!"

DAVE MUSTAINE: "NEW YEAR COMING!"

Dave Mustaine has posted the following update: "As you have no doubt seen a lot of posting by the boys and I here at the Official Megadeth site, and those of you in the know, know that our beloved webmaster has our MySpace, Facebook, iLike and other sites all linked together - so to speak - and there is a fantastic synergy between all of these portals for Megadeth info, interaction, and direct involvement of your favorite band member." MORE

December 21, 2008 - DAVE MUSTAINE'S CELEBRITY PLAYLIST ON IMEEM.COM

DAVE MUSTAINE

Check out Dave Mustaine's celebrity playlist on imeeem.com! Listen to Dave's audio intros explaining why he chose the songs for his playlist. Songs including, "Epic" by Faith No More, "Victim of Changes" by Judas Priest, "Rock Bottom" by U.F.O. and more! imeem is a social network that enables users to discover, interact and express themselves with media, including music, video and photos, and form connections based on shared tastes and interests. Check out Dave's playlist HERE

December 20, 2008 - MEGADETH'S VIDEO WIDGET - LEAVE MESSAGES & VIDEOS!

MEGADETH

Check out what other fans have to say, leave your own messages, and see exclusive video messages from Dave Mustaine on Megadeth.com's video widget! "A consistent innovator in music and technology, Dave Mustaine will be the first musician to utilize a fan-centric video widget to keep in touch with fans while on the road. Fans are able to video message directly with the band online, and with their cell phones - creating a highly personalized experience." To get started, register HERE

December 19, 2008 - DAVE MUSTAINE PRIVILEGED TO CONTRIBUTE TO 'DOOR OF FAITH'

DAVE MUSTAINE PRIVILEGED TO CONTRIBUTE TO

Dave Mustaine has posted the following update on the Megadeth Forums: "I just wanted to take the time to inform you of my privilege to be able to make a contribution today to the Door of Faith orphanage in Mexico. Thanks to all of the Net Worth Coffee Brokers customers and 'Mustaine Coffee Crew Members,' we were able to come through for the orphanage again this year." MORE

December 18, 2008 - DAVE MUSTAINE: "IT'S OFFICIAL, WE HAVE NINE SONGS"

DAVE MUSTAINE: "IT

Dave Mustaine has posted the following update on the Megadeth Forums: "It is the end of another busy and productive day here at Vic's garage. James is walking out the door as I type and Shawn is in going over old riffs and comparing stuff to "KIMB" to make sure that we aren't copying ourselves. It is official, we have nine (9) songs and sixteen (16) new ideas for additional songs. Please don't get excited though, because I am only contracted to record twelve (12) songs for the eleven (11) domestic tracks and one (1) additional track for Japan." MORE

December 18, 2008 - SHAWN DROVER: "KNEE-DEEP IN PROCESS OF WRITING NEW ALBUM"

SHAWN DROVER: "KNEE-DEEP IN PROCESS OF WRITING NEW ALBUM"

Shawn Drover has posted the following update on his myspace site: "...as I write this, I "think" we have 8 1/2 tunes written, and I like them all - a good musical variation thus far as well - Some fast stuff, mid paced stuff, and some slow heavy tunes as well for good balance. We are on a good path right now and are in a good creative mind-frame - certainly us having our own recording facility helps matters. This is our "home away from home" and we all like it." MORE

Megadeth RSS News Feed - right click - copy shortcut - paste to RSS Reader What is RSS?

» News Archive


REGISTER HERE TO VIEW EXCLUSIVE UPDATES & SEND YOUR OWN MESSAGES


Megadeth on the Map




Killing Road Priest Feast


Megadeth on DVD GIGANTOUR 2 DVD AND CD

That One Night: Live In Buenos Aires

Megadeth Warchest


Roadrunner Records

Megadeth Myspace

MegaFanClub

Megadeth on iLike

Gigantour.com

The Live Line





The Dave Mustaine Signature Series by Dean Guitars - click for dealers


Megamerch New - Killing Is My Business Zip Up Hoody

New - Classic Megadeth Belt Buckle



eBay MerchMegadeth eBay Store Listed Items



Net Worth Coffee Brokers NWCB Holiday Bundle


AskDaveMustaine.com

AskDaveMustaine.com

A NEW INTERACTIVE FAN EXPERIENCE!
To support the release of Megadeth's ultimate boxed set Warchest, we have developed a new interactive fan experience. Dave Mustaine has recorded videotaped answers to more than 100 questions, ranging from the basic "How tall are you?" to the more specialized "What is the origin of Vic Rattlehead?," resulting in pure metal gold! Dave comments: "I found it fun to do and quite rewarding when I hear how many people have laughed out loud for this." Check it out and ask Dave Mustaine your questions at www.AskDaveMustaine.com

United Abominations in Stores Now


Megafanclub

2008 MegaFanClub T-Shirt Art2008 MegaFanClub Premium Package THE OFFICIAL MEGADETH MEGAFANCLUB gives you the opportunity as fans to gain even more access! A membership provides a fan package including an exclusive fan club shirt, hand signed 8X10 photo, set of Megadeth guitar picks, deluxe metal Megadeth dogtag, band postcards, and Vic Rattlehead '08 sticker! Also included is one year access to the MFC website with exclusive media, private forums and chat room, live chats with the band, fan club store, auctions, contests, giveaways, blogs, news and photos, pre-sale concert tickets, your chance to meet Megadeth, and more!!
*No New Memberships Currently




Endorsements


Scorpion
ScorpioN
Every Monday, secret guest writer ScorpioN answers your questions, giving you the inside scoop on all things Megadeth! Click here for the latest release.


Megafan of the Week


FlunkCombatFlunkCombat

2008-12-24 17:12:17

Headline News

Megadeth's 2008 Christmas Card Contest 1st Place Winner - Rick Orlando

click to view all winners

view all winners


December 23, 2008 - FORMER MEGADETH CO-MANAGER DIES OF ESOPHAGEAL CANCER

FORMER MEGADETH CO-MANAGER DIES OF ESOPHAGEAL CANCER

Bud Prager, President of E.S.P. Management, Inc. - who co-managed Megadeth from 1995 to 2001, helping them to their first major commercial radio success and co-writing a number of songs - lost his year-plus long battle with esophageal cancer at his home in Montauk, N.Y. on December 22. Dave Mustaine was reached today and will be commenting on Bud's passing tomorrow. MORE

December 22, 2008 - DAVE MUSTAINE: "NEW YEAR COMING!"

DAVE MUSTAINE: "NEW YEAR COMING!"

Dave Mustaine has posted the following update: "As you have no doubt seen a lot of posting by the boys and I here at the Official Megadeth site, and those of you in the know, know that our beloved webmaster has our MySpace, Facebook, iLike and other sites all linked together - so to speak - and there is a fantastic synergy between all of these portals for Megadeth info, interaction, and direct involvement of your favorite band member." MORE

December 21, 2008 - DAVE MUSTAINE'S CELEBRITY PLAYLIST ON IMEEM.COM

DAVE MUSTAINE

Check out Dave Mustaine's celebrity playlist on imeeem.com! Listen to Dave's audio intros explaining why he chose the songs for his playlist. Songs including, "Epic" by Faith No More, "Victim of Changes" by Judas Priest, "Rock Bottom" by U.F.O. and more! imeem is a social network that enables users to discover, interact and express themselves with media, including music, video and photos, and form connections based on shared tastes and interests. Check out Dave's playlist HERE

December 20, 2008 - MEGADETH'S VIDEO WIDGET - LEAVE MESSAGES & VIDEOS!

MEGADETH

Check out what other fans have to say, leave your own messages, and see exclusive video messages from Dave Mustaine on Megadeth.com's video widget! "A consistent innovator in music and technology, Dave Mustaine will be the first musician to utilize a fan-centric video widget to keep in touch with fans while on the road. Fans are able to video message directly with the band online, and with their cell phones - creating a highly personalized experience." To get started, register HERE

December 19, 2008 - DAVE MUSTAINE PRIVILEGED TO CONTRIBUTE TO 'DOOR OF FAITH'

DAVE MUSTAINE PRIVILEGED TO CONTRIBUTE TO

Dave Mustaine has posted the following update on the Megadeth Forums: "I just wanted to take the time to inform you of my privilege to be able to make a contribution today to the Door of Faith orphanage in Mexico. Thanks to all of the Net Worth Coffee Brokers customers and 'Mustaine Coffee Crew Members,' we were able to come through for the orphanage again this year." MORE

December 18, 2008 - DAVE MUSTAINE: "IT'S OFFICIAL, WE HAVE NINE SONGS"

DAVE MUSTAINE: "IT

Dave Mustaine has posted the following update on the Megadeth Forums: "It is the end of another busy and productive day here at Vic's garage. James is walking out the door as I type and Shawn is in going over old riffs and comparing stuff to "KIMB" to make sure that we aren't copying ourselves. It is official, we have nine (9) songs and sixteen (16) new ideas for additional songs. Please don't get excited though, because I am only contracted to record twelve (12) songs for the eleven (11) domestic tracks and one (1) additional track for Japan." MORE

December 18, 2008 - SHAWN DROVER: "KNEE-DEEP IN PROCESS OF WRITING NEW ALBUM"

SHAWN DROVER: "KNEE-DEEP IN PROCESS OF WRITING NEW ALBUM"

Shawn Drover has posted the following update on his myspace site: "...as I write this, I "think" we have 8 1/2 tunes written, and I like them all - a good musical variation thus far as well - Some fast stuff, mid paced stuff, and some slow heavy tunes as well for good balance. We are on a good path right now and are in a good creative mind-frame - certainly us having our own recording facility helps matters. This is our "home away from home" and we all like it." MORE

Megadeth RSS News Feed - right click - copy shortcut - paste to RSS Reader What is RSS?

» News Archive


REGISTER HERE TO VIEW EXCLUSIVE UPDATES & SEND YOUR OWN MESSAGES


Megadeth on the Map




Killing Road Priest Feast


Megadeth on DVD GIGANTOUR 2 DVD AND CD

That One Night: Live In Buenos Aires

Megadeth Warchest


Roadrunner Records

Megadeth Myspace

MegaFanClub

Megadeth on iLike

Gigantour.com

The Live Line





The Dave Mustaine Signature Series by Dean Guitars - click for dealers


Megamerch New - Killing Is My Business Zip Up Hoody

New - Classic Megadeth Belt Buckle



eBay MerchMegadeth eBay Store Listed Items



Net Worth Coffee Brokers NWCB Holiday Bundle


AskDaveMustaine.com

AskDaveMustaine.com

A NEW INTERACTIVE FAN EXPERIENCE!
To support the release of Megadeth's ultimate boxed set Warchest, we have developed a new interactive fan experience. Dave Mustaine has recorded videotaped answers to more than 100 questions, ranging from the basic "How tall are you?" to the more specialized "What is the origin of Vic Rattlehead?," resulting in pure metal gold! Dave comments: "I found it fun to do and quite rewarding when I hear how many people have laughed out loud for this." Check it out and ask Dave Mustaine your questions at www.AskDaveMustaine.com

United Abominations in Stores Now


Megafanclub

2008 MegaFanClub T-Shirt Art2008 MegaFanClub Premium Package THE OFFICIAL MEGADETH MEGAFANCLUB gives you the opportunity as fans to gain even more access! A membership provides a fan package including an exclusive fan club shirt, hand signed 8X10 photo, set of Megadeth guitar picks, deluxe metal Megadeth dogtag, band postcards, and Vic Rattlehead '08 sticker! Also included is one year access to the MFC website with exclusive media, private forums and chat room, live chats with the band, fan club store, auctions, contests, giveaways, blogs, news and photos, pre-sale concert tickets, your chance to meet Megadeth, and more!!
*No New Memberships Currently




Endorsements


Scorpion
ScorpioN
Every Monday, secret guest writer ScorpioN answers your questions, giving you the inside scoop on all things Megadeth! Click here for the latest release.


Megafan of the Week


FlunkCombatFlunkCombat

2008-12-24 17:12:28

Headline News

Megadeth's 2008 Christmas Card Contest 1st Place Winner - Rick Orlando

click to view all winners

view all winners


December 23, 2008 - FORMER MEGADETH CO-MANAGER DIES OF ESOPHAGEAL CANCER

FORMER MEGADETH CO-MANAGER DIES OF ESOPHAGEAL CANCER

Bud Prager, President of E.S.P. Management, Inc. - who co-managed Megadeth from 1995 to 2001, helping them to their first major commercial radio success and co-writing a number of songs - lost his year-plus long battle with esophageal cancer at his home in Montauk, N.Y. on December 22. Dave Mustaine was reached today and will be commenting on Bud's passing tomorrow. MORE

December 22, 2008 - DAVE MUSTAINE: "NEW YEAR COMING!"

DAVE MUSTAINE: "NEW YEAR COMING!"

Dave Mustaine has posted the following update: "As you have no doubt seen a lot of posting by the boys and I here at the Official Megadeth site, and those of you in the know, know that our beloved webmaster has our MySpace, Facebook, iLike and other sites all linked together - so to speak - and there is a fantastic synergy between all of these portals for Megadeth info, interaction, and direct involvement of your favorite band member." MORE

December 21, 2008 - DAVE MUSTAINE'S CELEBRITY PLAYLIST ON IMEEM.COM

DAVE MUSTAINE

Check out Dave Mustaine's celebrity playlist on imeeem.com! Listen to Dave's audio intros explaining why he chose the songs for his playlist. Songs including, "Epic" by Faith No More, "Victim of Changes" by Judas Priest, "Rock Bottom" by U.F.O. and more! imeem is a social network that enables users to discover, interact and express themselves with media, including music, video and photos, and form connections based on shared tastes and interests. Check out Dave's playlist HERE

December 20, 2008 - MEGADETH'S VIDEO WIDGET - LEAVE MESSAGES & VIDEOS!

MEGADETH

Check out what other fans have to say, leave your own messages, and see exclusive video messages from Dave Mustaine on Megadeth.com's video widget! "A consistent innovator in music and technology, Dave Mustaine will be the first musician to utilize a fan-centric video widget to keep in touch with fans while on the road. Fans are able to video message directly with the band online, and with their cell phones - creating a highly personalized experience." To get started, register HERE

December 19, 2008 - DAVE MUSTAINE PRIVILEGED TO CONTRIBUTE TO 'DOOR OF FAITH'

DAVE MUSTAINE PRIVILEGED TO CONTRIBUTE TO

Dave Mustaine has posted the following update on the Megadeth Forums: "I just wanted to take the time to inform you of my privilege to be able to make a contribution today to the Door of Faith orphanage in Mexico. Thanks to all of the Net Worth Coffee Brokers customers and 'Mustaine Coffee Crew Members,' we were able to come through for the orphanage again this year." MORE

December 18, 2008 - DAVE MUSTAINE: "IT'S OFFICIAL, WE HAVE NINE SONGS"

DAVE MUSTAINE: "IT

Dave Mustaine has posted the following update on the Megadeth Forums: "It is the end of another busy and productive day here at Vic's garage. James is walking out the door as I type and Shawn is in going over old riffs and comparing stuff to "KIMB" to make sure that we aren't copying ourselves. It is official, we have nine (9) songs and sixteen (16) new ideas for additional songs. Please don't get excited though, because I am only contracted to record twelve (12) songs for the eleven (11) domestic tracks and one (1) additional track for Japan." MORE

December 18, 2008 - SHAWN DROVER: "KNEE-DEEP IN PROCESS OF WRITING NEW ALBUM"

SHAWN DROVER: "KNEE-DEEP IN PROCESS OF WRITING NEW ALBUM"

Shawn Drover has posted the following update on his myspace site: "...as I write this, I "think" we have 8 1/2 tunes written, and I like them all - a good musical variation thus far as well - Some fast stuff, mid paced stuff, and some slow heavy tunes as well for good balance. We are on a good path right now and are in a good creative mind-frame - certainly us having our own recording facility helps matters. This is our "home away from home" and we all like it." MORE

Megadeth RSS News Feed - right click - copy shortcut - paste to RSS Reader What is RSS?

» News Archive


REGISTER HERE TO VIEW EXCLUSIVE UPDATES & SEND YOUR OWN MESSAGES


Megadeth on the Map




Killing Road Priest Feast


Megadeth on DVD GIGANTOUR 2 DVD AND CD

That One Night: Live In Buenos Aires

Megadeth Warchest


Roadrunner Records

Megadeth Myspace

MegaFanClub

Megadeth on iLike

Gigantour.com

The Live Line





The Dave Mustaine Signature Series by Dean Guitars - click for dealers


Megamerch New - Killing Is My Business Zip Up Hoody

New - Classic Megadeth Belt Buckle



eBay MerchMegadeth eBay Store Listed Items



Net Worth Coffee Brokers NWCB Holiday Bundle


AskDaveMustaine.com

AskDaveMustaine.com

A NEW INTERACTIVE FAN EXPERIENCE!
To support the release of Megadeth's ultimate boxed set Warchest, we have developed a new interactive fan experience. Dave Mustaine has recorded videotaped answers to more than 100 questions, ranging from the basic "How tall are you?" to the more specialized "What is the origin of Vic Rattlehead?," resulting in pure metal gold! Dave comments: "I found it fun to do and quite rewarding when I hear how many people have laughed out loud for this." Check it out and ask Dave Mustaine your questions at www.AskDaveMustaine.com

United Abominations in Stores Now


Megafanclub

2008 MegaFanClub T-Shirt Art2008 MegaFanClub Premium Package THE OFFICIAL MEGADETH MEGAFANCLUB gives you the opportunity as fans to gain even more access! A membership provides a fan package including an exclusive fan club shirt, hand signed 8X10 photo, set of Megadeth guitar picks, deluxe metal Megadeth dogtag, band postcards, and Vic Rattlehead '08 sticker! Also included is one year access to the MFC website with exclusive media, private forums and chat room, live chats with the band, fan club store, auctions, contests, giveaways, blogs, news and photos, pre-sale concert tickets, your chance to meet Megadeth, and more!!
*No New Memberships Currently




Endorsements


Scorpion
ScorpioN
Every Monday, secret guest writer ScorpioN answers your questions, giving you the inside scoop on all things Megadeth! Click here for the latest release.


Megafan of the Week


FlunkCombatFlunkCombat

2008-12-24 17:12:37

Headline News

Megadeth's 2008 Christmas Card Contest 1st Place Winner - Rick Orlando

click to view all winners

view all winners


December 23, 2008 - FORMER MEGADETH CO-MANAGER DIES OF ESOPHAGEAL CANCER

FORMER MEGADETH CO-MANAGER DIES OF ESOPHAGEAL CANCER

Bud Prager, President of E.S.P. Management, Inc. - who co-managed Megadeth from 1995 to 2001, helping them to their first major commercial radio success and co-writing a number of songs - lost his year-plus long battle with esophageal cancer at his home in Montauk, N.Y. on December 22. Dave Mustaine was reached today and will be commenting on Bud's passing tomorrow. MORE

December 22, 2008 - DAVE MUSTAINE: "NEW YEAR COMING!"

DAVE MUSTAINE: "NEW YEAR COMING!"

Dave Mustaine has posted the following update: "As you have no doubt seen a lot of posting by the boys and I here at the Official Megadeth site, and those of you in the know, know that our beloved webmaster has our MySpace, Facebook, iLike and other sites all linked together - so to speak - and there is a fantastic synergy between all of these portals for Megadeth info, interaction, and direct involvement of your favorite band member." MORE

December 21, 2008 - DAVE MUSTAINE'S CELEBRITY PLAYLIST ON IMEEM.COM

DAVE MUSTAINE

Check out Dave Mustaine's celebrity playlist on imeeem.com! Listen to Dave's audio intros explaining why he chose the songs for his playlist. Songs including, "Epic" by Faith No More, "Victim of Changes" by Judas Priest, "Rock Bottom" by U.F.O. and more! imeem is a social network that enables users to discover, interact and express themselves with media, including music, video and photos, and form connections based on shared tastes and interests. Check out Dave's playlist HERE

December 20, 2008 - MEGADETH'S VIDEO WIDGET - LEAVE MESSAGES & VIDEOS!

MEGADETH

Check out what other fans have to say, leave your own messages, and see exclusive video messages from Dave Mustaine on Megadeth.com's video widget! "A consistent innovator in music and technology, Dave Mustaine will be the first musician to utilize a fan-centric video widget to keep in touch with fans while on the road. Fans are able to video message directly with the band online, and with their cell phones - creating a highly personalized experience." To get started, register HERE

December 19, 2008 - DAVE MUSTAINE PRIVILEGED TO CONTRIBUTE TO 'DOOR OF FAITH'

DAVE MUSTAINE PRIVILEGED TO CONTRIBUTE TO

Dave Mustaine has posted the following update on the Megadeth Forums: "I just wanted to take the time to inform you of my privilege to be able to make a contribution today to the Door of Faith orphanage in Mexico. Thanks to all of the Net Worth Coffee Brokers customers and 'Mustaine Coffee Crew Members,' we were able to come through for the orphanage again this year." MORE

December 18, 2008 - DAVE MUSTAINE: "IT'S OFFICIAL, WE HAVE NINE SONGS"

DAVE MUSTAINE: "IT

Dave Mustaine has posted the following update on the Megadeth Forums: "It is the end of another busy and productive day here at Vic's garage. James is walking out the door as I type and Shawn is in going over old riffs and comparing stuff to "KIMB" to make sure that we aren't copying ourselves. It is official, we have nine (9) songs and sixteen (16) new ideas for additional songs. Please don't get excited though, because I am only contracted to record twelve (12) songs for the eleven (11) domestic tracks and one (1) additional track for Japan." MORE

December 18, 2008 - SHAWN DROVER: "KNEE-DEEP IN PROCESS OF WRITING NEW ALBUM"

SHAWN DROVER: "KNEE-DEEP IN PROCESS OF WRITING NEW ALBUM"

Shawn Drover has posted the following update on his myspace site: "...as I write this, I "think" we have 8 1/2 tunes written, and I like them all - a good musical variation thus far as well - Some fast stuff, mid paced stuff, and some slow heavy tunes as well for good balance. We are on a good path right now and are in a good creative mind-frame - certainly us having our own recording facility helps matters. This is our "home away from home" and we all like it." MORE

Megadeth RSS News Feed - right click - copy shortcut - paste to RSS Reader What is RSS?

» News Archive


REGISTER HERE TO VIEW EXCLUSIVE UPDATES & SEND YOUR OWN MESSAGES


Megadeth on the Map




Killing Road Priest Feast


Megadeth on DVD GIGANTOUR 2 DVD AND CD

That One Night: Live In Buenos Aires

Megadeth Warchest


Roadrunner Records

Megadeth Myspace

MegaFanClub

Megadeth on iLike

Gigantour.com

The Live Line





The Dave Mustaine Signature Series by Dean Guitars - click for dealers


Megamerch New - Killing Is My Business Zip Up Hoody

New - Classic Megadeth Belt Buckle



eBay MerchMegadeth eBay Store Listed Items



Net Worth Coffee Brokers NWCB Holiday Bundle


AskDaveMustaine.com

AskDaveMustaine.com

A NEW INTERACTIVE FAN EXPERIENCE!
To support the release of Megadeth's ultimate boxed set Warchest, we have developed a new interactive fan experience. Dave Mustaine has recorded videotaped answers to more than 100 questions, ranging from the basic "How tall are you?" to the more specialized "What is the origin of Vic Rattlehead?," resulting in pure metal gold! Dave comments: "I found it fun to do and quite rewarding when I hear how many people have laughed out loud for this." Check it out and ask Dave Mustaine your questions at www.AskDaveMustaine.com

United Abominations in Stores Now


Megafanclub

2008 MegaFanClub T-Shirt Art2008 MegaFanClub Premium Package THE OFFICIAL MEGADETH MEGAFANCLUB gives you the opportunity as fans to gain even more access! A membership provides a fan package including an exclusive fan club shirt, hand signed 8X10 photo, set of Megadeth guitar picks, deluxe metal Megadeth dogtag, band postcards, and Vic Rattlehead '08 sticker! Also included is one year access to the MFC website with exclusive media, private forums and chat room, live chats with the band, fan club store, auctions, contests, giveaways, blogs, news and photos, pre-sale concert tickets, your chance to meet Megadeth, and more!!
*No New Memberships Currently




Endorsements


Scorpion
ScorpioN
Every Monday, secret guest writer ScorpioN answers your questions, giving you the inside scoop on all things Megadeth! Click here for the latest release.


Megafan of the Week


FlunkCombatFlunkCombat

2008-12-24 17:12:47

Headline News

Megadeth's 2008 Christmas Card Contest 1st Place Winner - Rick Orlando

click to view all winners

view all winners


December 23, 2008 - FORMER MEGADETH CO-MANAGER DIES OF ESOPHAGEAL CANCER

FORMER MEGADETH CO-MANAGER DIES OF ESOPHAGEAL CANCER

Bud Prager, President of E.S.P. Management, Inc. - who co-managed Megadeth from 1995 to 2001, helping them to their first major commercial radio success and co-writing a number of songs - lost his year-plus long battle with esophageal cancer at his home in Montauk, N.Y. on December 22. Dave Mustaine was reached today and will be commenting on Bud's passing tomorrow. MORE

December 22, 2008 - DAVE MUSTAINE: "NEW YEAR COMING!"

DAVE MUSTAINE: "NEW YEAR COMING!"

Dave Mustaine has posted the following update: "As you have no doubt seen a lot of posting by the boys and I here at the Official Megadeth site, and those of you in the know, know that our beloved webmaster has our MySpace, Facebook, iLike and other sites all linked together - so to speak - and there is a fantastic synergy between all of these portals for Megadeth info, interaction, and direct involvement of your favorite band member." MORE

December 21, 2008 - DAVE MUSTAINE'S CELEBRITY PLAYLIST ON IMEEM.COM

DAVE MUSTAINE

Check out Dave Mustaine's celebrity playlist on imeeem.com! Listen to Dave's audio intros explaining why he chose the songs for his playlist. Songs including, "Epic" by Faith No More, "Victim of Changes" by Judas Priest, "Rock Bottom" by U.F.O. and more! imeem is a social network that enables users to discover, interact and express themselves with media, including music, video and photos, and form connections based on shared tastes and interests. Check out Dave's playlist HERE

December 20, 2008 - MEGADETH'S VIDEO WIDGET - LEAVE MESSAGES & VIDEOS!

MEGADETH

Check out what other fans have to say, leave your own messages, and see exclusive video messages from Dave Mustaine on Megadeth.com's video widget! "A consistent innovator in music and technology, Dave Mustaine will be the first musician to utilize a fan-centric video widget to keep in touch with fans while on the road. Fans are able to video message directly with the band online, and with their cell phones - creating a highly personalized experience." To get started, register HERE

December 19, 2008 - DAVE MUSTAINE PRIVILEGED TO CONTRIBUTE TO 'DOOR OF FAITH'

DAVE MUSTAINE PRIVILEGED TO CONTRIBUTE TO

Dave Mustaine has posted the following update on the Megadeth Forums: "I just wanted to take the time to inform you of my privilege to be able to make a contribution today to the Door of Faith orphanage in Mexico. Thanks to all of the Net Worth Coffee Brokers customers and 'Mustaine Coffee Crew Members,' we were able to come through for the orphanage again this year." MORE

December 18, 2008 - DAVE MUSTAINE: "IT'S OFFICIAL, WE HAVE NINE SONGS"

DAVE MUSTAINE: "IT

Dave Mustaine has posted the following update on the Megadeth Forums: "It is the end of another busy and productive day here at Vic's garage. James is walking out the door as I type and Shawn is in going over old riffs and comparing stuff to "KIMB" to make sure that we aren't copying ourselves. It is official, we have nine (9) songs and sixteen (16) new ideas for additional songs. Please don't get excited though, because I am only contracted to record twelve (12) songs for the eleven (11) domestic tracks and one (1) additional track for Japan." MORE

December 18, 2008 - SHAWN DROVER: "KNEE-DEEP IN PROCESS OF WRITING NEW ALBUM"

SHAWN DROVER: "KNEE-DEEP IN PROCESS OF WRITING NEW ALBUM"

Shawn Drover has posted the following update on his myspace site: "...as I write this, I "think" we have 8 1/2 tunes written, and I like them all - a good musical variation thus far as well - Some fast stuff, mid paced stuff, and some slow heavy tunes as well for good balance. We are on a good path right now and are in a good creative mind-frame - certainly us having our own recording facility helps matters. This is our "home away from home" and we all like it." MORE

Megadeth RSS News Feed - right click - copy shortcut - paste to RSS Reader What is RSS?

» News Archive


REGISTER HERE TO VIEW EXCLUSIVE UPDATES & SEND YOUR OWN MESSAGES


Megadeth on the Map




Killing Road Priest Feast


Megadeth on DVD GIGANTOUR 2 DVD AND CD

That One Night: Live In Buenos Aires

Megadeth Warchest


Roadrunner Records

Megadeth Myspace

MegaFanClub

Megadeth on iLike

Gigantour.com

The Live Line





The Dave Mustaine Signature Series by Dean Guitars - click for dealers


Megamerch New - Killing Is My Business Zip Up Hoody

New - Classic Megadeth Belt Buckle



eBay MerchMegadeth eBay Store Listed Items



Net Worth Coffee Brokers NWCB Holiday Bundle


AskDaveMustaine.com

AskDaveMustaine.com

A NEW INTERACTIVE FAN EXPERIENCE!
To support the release of Megadeth's ultimate boxed set Warchest, we have developed a new interactive fan experience. Dave Mustaine has recorded videotaped answers to more than 100 questions, ranging from the basic "How tall are you?" to the more specialized "What is the origin of Vic Rattlehead?," resulting in pure metal gold! Dave comments: "I found it fun to do and quite rewarding when I hear how many people have laughed out loud for this." Check it out and ask Dave Mustaine your questions at www.AskDaveMustaine.com

United Abominations in Stores Now


Megafanclub

2008 MegaFanClub T-Shirt Art2008 MegaFanClub Premium Package THE OFFICIAL MEGADETH MEGAFANCLUB gives you the opportunity as fans to gain even more access! A membership provides a fan package including an exclusive fan club shirt, hand signed 8X10 photo, set of Megadeth guitar picks, deluxe metal Megadeth dogtag, band postcards, and Vic Rattlehead '08 sticker! Also included is one year access to the MFC website with exclusive media, private forums and chat room, live chats with the band, fan club store, auctions, contests, giveaways, blogs, news and photos, pre-sale concert tickets, your chance to meet Megadeth, and more!!
*No New Memberships Currently




Endorsements


Scorpion
ScorpioN
Every Monday, secret guest writer ScorpioN answers your questions, giving you the inside scoop on all things Megadeth! Click here for the latest release.


Megafan of the Week


FlunkCombatFlunkCombat

2008-12-24 17:12:57

Headline News

Megadeth's 2008 Christmas Card Contest 1st Place Winner - Rick Orlando

click to view all winners

view all winners


December 23, 2008 - FORMER MEGADETH CO-MANAGER DIES OF ESOPHAGEAL CANCER

FORMER MEGADETH CO-MANAGER DIES OF ESOPHAGEAL CANCER

Bud Prager, President of E.S.P. Management, Inc. - who co-managed Megadeth from 1995 to 2001, helping them to their first major commercial radio success and co-writing a number of songs - lost his year-plus long battle with esophageal cancer at his home in Montauk, N.Y. on December 22. Dave Mustaine was reached today and will be commenting on Bud's passing tomorrow. MORE

December 22, 2008 - DAVE MUSTAINE: "NEW YEAR COMING!"

DAVE MUSTAINE: "NEW YEAR COMING!"

Dave Mustaine has posted the following update: "As you have no doubt seen a lot of posting by the boys and I here at the Official Megadeth site, and those of you in the know, know that our beloved webmaster has our MySpace, Facebook, iLike and other sites all linked together - so to speak - and there is a fantastic synergy between all of these portals for Megadeth info, interaction, and direct involvement of your favorite band member." MORE

December 21, 2008 - DAVE MUSTAINE'S CELEBRITY PLAYLIST ON IMEEM.COM

DAVE MUSTAINE

Check out Dave Mustaine's celebrity playlist on imeeem.com! Listen to Dave's audio intros explaining why he chose the songs for his playlist. Songs including, "Epic" by Faith No More, "Victim of Changes" by Judas Priest, "Rock Bottom" by U.F.O. and more! imeem is a social network that enables users to discover, interact and express themselves with media, including music, video and photos, and form connections based on shared tastes and interests. Check out Dave's playlist HERE

December 20, 2008 - MEGADETH'S VIDEO WIDGET - LEAVE MESSAGES & VIDEOS!

MEGADETH

Check out what other fans have to say, leave your own messages, and see exclusive video messages from Dave Mustaine on Megadeth.com's video widget! "A consistent innovator in music and technology, Dave Mustaine will be the first musician to utilize a fan-centric video widget to keep in touch with fans while on the road. Fans are able to video message directly with the band online, and with their cell phones - creating a highly personalized experience." To get started, register HERE

December 19, 2008 - DAVE MUSTAINE PRIVILEGED TO CONTRIBUTE TO 'DOOR OF FAITH'

DAVE MUSTAINE PRIVILEGED TO CONTRIBUTE TO

Dave Mustaine has posted the following update on the Megadeth Forums: "I just wanted to take the time to inform you of my privilege to be able to make a contribution today to the Door of Faith orphanage in Mexico. Thanks to all of the Net Worth Coffee Brokers customers and 'Mustaine Coffee Crew Members,' we were able to come through for the orphanage again this year." MORE

December 18, 2008 - DAVE MUSTAINE: "IT'S OFFICIAL, WE HAVE NINE SONGS"

DAVE MUSTAINE: "IT

Dave Mustaine has posted the following update on the Megadeth Forums: "It is the end of another busy and productive day here at Vic's garage. James is walking out the door as I type and Shawn is in going over old riffs and comparing stuff to "KIMB" to make sure that we aren't copying ourselves. It is official, we have nine (9) songs and sixteen (16) new ideas for additional songs. Please don't get excited though, because I am only contracted to record twelve (12) songs for the eleven (11) domestic tracks and one (1) additional track for Japan." MORE

December 18, 2008 - SHAWN DROVER: "KNEE-DEEP IN PROCESS OF WRITING NEW ALBUM"

SHAWN DROVER: "KNEE-DEEP IN PROCESS OF WRITING NEW ALBUM"

Shawn Drover has posted the following update on his myspace site: "...as I write this, I "think" we have 8 1/2 tunes written, and I like them all - a good musical variation thus far as well - Some fast stuff, mid paced stuff, and some slow heavy tunes as well for good balance. We are on a good path right now and are in a good creative mind-frame - certainly us having our own recording facility helps matters. This is our "home away from home" and we all like it." MORE

Megadeth RSS News Feed - right click - copy shortcut - paste to RSS Reader What is RSS?

» News Archive


REGISTER HERE TO VIEW EXCLUSIVE UPDATES & SEND YOUR OWN MESSAGES


Megadeth on the Map




Killing Road Priest Feast


Megadeth on DVD GIGANTOUR 2 DVD AND CD

That One Night: Live In Buenos Aires

Megadeth Warchest


Roadrunner Records

Megadeth Myspace

MegaFanClub

Megadeth on iLike

Gigantour.com

The Live Line





The Dave Mustaine Signature Series by Dean Guitars - click for dealers


Megamerch New - Killing Is My Business Zip Up Hoody

New - Classic Megadeth Belt Buckle



eBay MerchMegadeth eBay Store Listed Items



Net Worth Coffee Brokers NWCB Holiday Bundle


AskDaveMustaine.com

AskDaveMustaine.com

A NEW INTERACTIVE FAN EXPERIENCE!
To support the release of Megadeth's ultimate boxed set Warchest, we have developed a new interactive fan experience. Dave Mustaine has recorded videotaped answers to more than 100 questions, ranging from the basic "How tall are you?" to the more specialized "What is the origin of Vic Rattlehead?," resulting in pure metal gold! Dave comments: "I found it fun to do and quite rewarding when I hear how many people have laughed out loud for this." Check it out and ask Dave Mustaine your questions at www.AskDaveMustaine.com

United Abominations in Stores Now


Megafanclub

2008 MegaFanClub T-Shirt Art2008 MegaFanClub Premium Package THE OFFICIAL MEGADETH MEGAFANCLUB gives you the opportunity as fans to gain even more access! A membership provides a fan package including an exclusive fan club shirt, hand signed 8X10 photo, set of Megadeth guitar picks, deluxe metal Megadeth dogtag, band postcards, and Vic Rattlehead '08 sticker! Also included is one year access to the MFC website with exclusive media, private forums and chat room, live chats with the band, fan club store, auctions, contests, giveaways, blogs, news and photos, pre-sale concert tickets, your chance to meet Megadeth, and more!!
*No New Memberships Currently




Endorsements


Scorpion
ScorpioN
Every Monday, secret guest writer ScorpioN answers your questions, giving you the inside scoop on all things Megadeth! Click here for the latest release.


Megafan of the Week


FlunkCombatFlunkCombat

2008-12-24 17:13:07

Headline News

Megadeth's 2008 Christmas Card Contest 1st Place Winner - Rick Orlando

click to view all winners

view all winners


December 23, 2008 - FORMER MEGADETH CO-MANAGER DIES OF ESOPHAGEAL CANCER

FORMER MEGADETH CO-MANAGER DIES OF ESOPHAGEAL CANCER

Bud Prager, President of E.S.P. Management, Inc. - who co-managed Megadeth from 1995 to 2001, helping them to their first major commercial radio success and co-writing a number of songs - lost his year-plus long battle with esophageal cancer at his home in Montauk, N.Y. on December 22. Dave Mustaine was reached today and will be commenting on Bud's passing tomorrow. MORE

December 22, 2008 - DAVE MUSTAINE: "NEW YEAR COMING!"

DAVE MUSTAINE: "NEW YEAR COMING!"

Dave Mustaine has posted the following update: "As you have no doubt seen a lot of posting by the boys and I here at the Official Megadeth site, and those of you in the know, know that our beloved webmaster has our MySpace, Facebook, iLike and other sites all linked together - so to speak - and there is a fantastic synergy between all of these portals for Megadeth info, interaction, and direct involvement of your favorite band member." MORE

December 21, 2008 - DAVE MUSTAINE'S CELEBRITY PLAYLIST ON IMEEM.COM

DAVE MUSTAINE

Check out Dave Mustaine's celebrity playlist on imeeem.com! Listen to Dave's audio intros explaining why he chose the songs for his playlist. Songs including, "Epic" by Faith No More, "Victim of Changes" by Judas Priest, "Rock Bottom" by U.F.O. and more! imeem is a social network that enables users to discover, interact and express themselves with media, including music, video and photos, and form connections based on shared tastes and interests. Check out Dave's playlist HERE

December 20, 2008 - MEGADETH'S VIDEO WIDGET - LEAVE MESSAGES & VIDEOS!

MEGADETH

Check out what other fans have to say, leave your own messages, and see exclusive video messages from Dave Mustaine on Megadeth.com's video widget! "A consistent innovator in music and technology, Dave Mustaine will be the first musician to utilize a fan-centric video widget to keep in touch with fans while on the road. Fans are able to video message directly with the band online, and with their cell phones - creating a highly personalized experience." To get started, register HERE

December 19, 2008 - DAVE MUSTAINE PRIVILEGED TO CONTRIBUTE TO 'DOOR OF FAITH'

DAVE MUSTAINE PRIVILEGED TO CONTRIBUTE TO

Dave Mustaine has posted the following update on the Megadeth Forums: "I just wanted to take the time to inform you of my privilege to be able to make a contribution today to the Door of Faith orphanage in Mexico. Thanks to all of the Net Worth Coffee Brokers customers and 'Mustaine Coffee Crew Members,' we were able to come through for the orphanage again this year." MORE

December 18, 2008 - DAVE MUSTAINE: "IT'S OFFICIAL, WE HAVE NINE SONGS"

DAVE MUSTAINE: "IT

Dave Mustaine has posted the following update on the Megadeth Forums: "It is the end of another busy and productive day here at Vic's garage. James is walking out the door as I type and Shawn is in going over old riffs and comparing stuff to "KIMB" to make sure that we aren't copying ourselves. It is official, we have nine (9) songs and sixteen (16) new ideas for additional songs. Please don't get excited though, because I am only contracted to record twelve (12) songs for the eleven (11) domestic tracks and one (1) additional track for Japan." MORE

December 18, 2008 - SHAWN DROVER: "KNEE-DEEP IN PROCESS OF WRITING NEW ALBUM"

SHAWN DROVER: "KNEE-DEEP IN PROCESS OF WRITING NEW ALBUM"

Shawn Drover has posted the following update on his myspace site: "...as I write this, I "think" we have 8 1/2 tunes written, and I like them all - a good musical variation thus far as well - Some fast stuff, mid paced stuff, and some slow heavy tunes as well for good balance. We are on a good path right now and are in a good creative mind-frame - certainly us having our own recording facility helps matters. This is our "home away from home" and we all like it." MORE

Megadeth RSS News Feed - right click - copy shortcut - paste to RSS Reader What is RSS?

» News Archive


REGISTER HERE TO VIEW EXCLUSIVE UPDATES & SEND YOUR OWN MESSAGES


Megadeth on the Map




Killing Road Priest Feast


Megadeth on DVD GIGANTOUR 2 DVD AND CD

That One Night: Live In Buenos Aires

Megadeth Warchest


Roadrunner Records

Megadeth Myspace

MegaFanClub

Megadeth on iLike

Gigantour.com

The Live Line





The Dave Mustaine Signature Series by Dean Guitars - click for dealers


Megamerch New - Killing Is My Business Zip Up Hoody

New - Classic Megadeth Belt Buckle



eBay MerchMegadeth eBay Store Listed Items



Net Worth Coffee Brokers NWCB Holiday Bundle


AskDaveMustaine.com

AskDaveMustaine.com

A NEW INTERACTIVE FAN EXPERIENCE!
To support the release of Megadeth's ultimate boxed set Warchest, we have developed a new interactive fan experience. Dave Mustaine has recorded videotaped answers to more than 100 questions, ranging from the basic "How tall are you?" to the more specialized "What is the origin of Vic Rattlehead?," resulting in pure metal gold! Dave comments: "I found it fun to do and quite rewarding when I hear how many people have laughed out loud for this." Check it out and ask Dave Mustaine your questions at www.AskDaveMustaine.com

United Abominations in Stores Now


Megafanclub

2008 MegaFanClub T-Shirt Art2008 MegaFanClub Premium Package THE OFFICIAL MEGADETH MEGAFANCLUB gives you the opportunity as fans to gain even more access! A membership provides a fan package including an exclusive fan club shirt, hand signed 8X10 photo, set of Megadeth guitar picks, deluxe metal Megadeth dogtag, band postcards, and Vic Rattlehead '08 sticker! Also included is one year access to the MFC website with exclusive media, private forums and chat room, live chats with the band, fan club store, auctions, contests, giveaways, blogs, news and photos, pre-sale concert tickets, your chance to meet Megadeth, and more!!
*No New Memberships Currently




Endorsements


Scorpion
ScorpioN
Every Monday, secret guest writer ScorpioN answers your questions, giving you the inside scoop on all things Megadeth! Click here for the latest release.


Megafan of the Week


FlunkCombatFlunkCombat

2008-12-24 17:13:18

Headline News

Megadeth's 2008 Christmas Card Contest 1st Place Winner - Rick Orlando

click to view all winners

view all winners


December 23, 2008 - FORMER MEGADETH CO-MANAGER DIES OF ESOPHAGEAL CANCER

FORMER MEGADETH CO-MANAGER DIES OF ESOPHAGEAL CANCER

Bud Prager, President of E.S.P. Management, Inc. - who co-managed Megadeth from 1995 to 2001, helping them to their first major commercial radio success and co-writing a number of songs - lost his year-plus long battle with esophageal cancer at his home in Montauk, N.Y. on December 22. Dave Mustaine was reached today and will be commenting on Bud's passing tomorrow. MORE

December 22, 2008 - DAVE MUSTAINE: "NEW YEAR COMING!"

DAVE MUSTAINE: "NEW YEAR COMING!"

Dave Mustaine has posted the following update: "As you have no doubt seen a lot of posting by the boys and I here at the Official Megadeth site, and those of you in the know, know that our beloved webmaster has our MySpace, Facebook, iLike and other sites all linked together - so to speak - and there is a fantastic synergy between all of these portals for Megadeth info, interaction, and direct involvement of your favorite band member." MORE

December 21, 2008 - DAVE MUSTAINE'S CELEBRITY PLAYLIST ON IMEEM.COM

DAVE MUSTAINE

Check out Dave Mustaine's celebrity playlist on imeeem.com! Listen to Dave's audio intros explaining why he chose the songs for his playlist. Songs including, "Epic" by Faith No More, "Victim of Changes" by Judas Priest, "Rock Bottom" by U.F.O. and more! imeem is a social network that enables users to discover, interact and express themselves with media, including music, video and photos, and form connections based on shared tastes and interests. Check out Dave's playlist HERE

December 20, 2008 - MEGADETH'S VIDEO WIDGET - LEAVE MESSAGES & VIDEOS!

MEGADETH

Check out what other fans have to say, leave your own messages, and see exclusive video messages from Dave Mustaine on Megadeth.com's video widget! "A consistent innovator in music and technology, Dave Mustaine will be the first musician to utilize a fan-centric video widget to keep in touch with fans while on the road. Fans are able to video message directly with the band online, and with their cell phones - creating a highly personalized experience." To get started, register HERE

December 19, 2008 - DAVE MUSTAINE PRIVILEGED TO CONTRIBUTE TO 'DOOR OF FAITH'

DAVE MUSTAINE PRIVILEGED TO CONTRIBUTE TO

Dave Mustaine has posted the following update on the Megadeth Forums: "I just wanted to take the time to inform you of my privilege to be able to make a contribution today to the Door of Faith orphanage in Mexico. Thanks to all of the Net Worth Coffee Brokers customers and 'Mustaine Coffee Crew Members,' we were able to come through for the orphanage again this year." MORE

December 18, 2008 - DAVE MUSTAINE: "IT'S OFFICIAL, WE HAVE NINE SONGS"

DAVE MUSTAINE: "IT

Dave Mustaine has posted the following update on the Megadeth Forums: "It is the end of another busy and productive day here at Vic's garage. James is walking out the door as I type and Shawn is in going over old riffs and comparing stuff to "KIMB" to make sure that we aren't copying ourselves. It is official, we have nine (9) songs and sixteen (16) new ideas for additional songs. Please don't get excited though, because I am only contracted to record twelve (12) songs for the eleven (11) domestic tracks and one (1) additional track for Japan." MORE

December 18, 2008 - SHAWN DROVER: "KNEE-DEEP IN PROCESS OF WRITING NEW ALBUM"

SHAWN DROVER: "KNEE-DEEP IN PROCESS OF WRITING NEW ALBUM"

Shawn Drover has posted the following update on his myspace site: "...as I write this, I "think" we have 8 1/2 tunes written, and I like them all - a good musical variation thus far as well - Some fast stuff, mid paced stuff, and some slow heavy tunes as well for good balance. We are on a good path right now and are in a good creative mind-frame - certainly us having our own recording facility helps matters. This is our "home away from home" and we all like it." MORE

Megadeth RSS News Feed - right click - copy shortcut - paste to RSS Reader What is RSS?

» News Archive


REGISTER HERE TO VIEW EXCLUSIVE UPDATES & SEND YOUR OWN MESSAGES


Megadeth on the Map




Killing Road Priest Feast


Megadeth on DVD GIGANTOUR 2 DVD AND CD

That One Night: Live In Buenos Aires

Megadeth Warchest


Roadrunner Records

Megadeth Myspace

MegaFanClub

Megadeth on iLike

Gigantour.com

The Live Line





The Dave Mustaine Signature Series by Dean Guitars - click for dealers


Megamerch New - Killing Is My Business Zip Up Hoody

New - Classic Megadeth Belt Buckle



eBay MerchMegadeth eBay Store Listed Items



Net Worth Coffee Brokers NWCB Holiday Bundle


AskDaveMustaine.com

AskDaveMustaine.com

A NEW INTERACTIVE FAN EXPERIENCE!
To support the release of Megadeth's ultimate boxed set Warchest, we have developed a new interactive fan experience. Dave Mustaine has recorded videotaped answers to more than 100 questions, ranging from the basic "How tall are you?" to the more specialized "What is the origin of Vic Rattlehead?," resulting in pure metal gold! Dave comments: "I found it fun to do and quite rewarding when I hear how many people have laughed out loud for this." Check it out and ask Dave Mustaine your questions at www.AskDaveMustaine.com

United Abominations in Stores Now


Megafanclub

2008 MegaFanClub T-Shirt Art2008 MegaFanClub Premium Package THE OFFICIAL MEGADETH MEGAFANCLUB gives you the opportunity as fans to gain even more access! A membership provides a fan package including an exclusive fan club shirt, hand signed 8X10 photo, set of Megadeth guitar picks, deluxe metal Megadeth dogtag, band postcards, and Vic Rattlehead '08 sticker! Also included is one year access to the MFC website with exclusive media, private forums and chat room, live chats with the band, fan club store, auctions, contests, giveaways, blogs, news and photos, pre-sale concert tickets, your chance to meet Megadeth, and more!!
*No New Memberships Currently




Endorsements


Scorpion
ScorpioN
Every Monday, secret guest writer ScorpioN answers your questions, giving you the inside scoop on all things Megadeth! Click here for the latest release.


Megafan of the Week


FlunkCombatFlunkCombat

2008-12-24 17:13:28

Headline News

Megadeth's 2008 Christmas Card Contest 1st Place Winner - Rick Orlando

click to view all winners

view all winners


December 23, 2008 - FORMER MEGADETH CO-MANAGER DIES OF ESOPHAGEAL CANCER

FORMER MEGADETH CO-MANAGER DIES OF ESOPHAGEAL CANCER

Bud Prager, President of E.S.P. Management, Inc. - who co-managed Megadeth from 1995 to 2001, helping them to their first major commercial radio success and co-writing a number of songs - lost his year-plus long battle with esophageal cancer at his home in Montauk, N.Y. on December 22. Dave Mustaine was reached today and will be commenting on Bud's passing tomorrow. MORE

December 22, 2008 - DAVE MUSTAINE: "NEW YEAR COMING!"

DAVE MUSTAINE: "NEW YEAR COMING!"

Dave Mustaine has posted the following update: "As you have no doubt seen a lot of posting by the boys and I here at the Official Megadeth site, and those of you in the know, know that our beloved webmaster has our MySpace, Facebook, iLike and other sites all linked together - so to speak - and there is a fantastic synergy between all of these portals for Megadeth info, interaction, and direct involvement of your favorite band member." MORE

December 21, 2008 - DAVE MUSTAINE'S CELEBRITY PLAYLIST ON IMEEM.COM

DAVE MUSTAINE

Check out Dave Mustaine's celebrity playlist on imeeem.com! Listen to Dave's audio intros explaining why he chose the songs for his playlist. Songs including, "Epic" by Faith No More, "Victim of Changes" by Judas Priest, "Rock Bottom" by U.F.O. and more! imeem is a social network that enables users to discover, interact and express themselves with media, including music, video and photos, and form connections based on shared tastes and interests. Check out Dave's playlist HERE

December 20, 2008 - MEGADETH'S VIDEO WIDGET - LEAVE MESSAGES & VIDEOS!

MEGADETH

Check out what other fans have to say, leave your own messages, and see exclusive video messages from Dave Mustaine on Megadeth.com's video widget! "A consistent innovator in music and technology, Dave Mustaine will be the first musician to utilize a fan-centric video widget to keep in touch with fans while on the road. Fans are able to video message directly with the band online, and with their cell phones - creating a highly personalized experience." To get started, register HERE

December 19, 2008 - DAVE MUSTAINE PRIVILEGED TO CONTRIBUTE TO 'DOOR OF FAITH'

DAVE MUSTAINE PRIVILEGED TO CONTRIBUTE TO

Dave Mustaine has posted the following update on the Megadeth Forums: "I just wanted to take the time to inform you of my privilege to be able to make a contribution today to the Door of Faith orphanage in Mexico. Thanks to all of the Net Worth Coffee Brokers customers and 'Mustaine Coffee Crew Members,' we were able to come through for the orphanage again this year." MORE

December 18, 2008 - DAVE MUSTAINE: "IT'S OFFICIAL, WE HAVE NINE SONGS"

DAVE MUSTAINE: "IT

Dave Mustaine has posted the following update on the Megadeth Forums: "It is the end of another busy and productive day here at Vic's garage. James is walking out the door as I type and Shawn is in going over old riffs and comparing stuff to "KIMB" to make sure that we aren't copying ourselves. It is official, we have nine (9) songs and sixteen (16) new ideas for additional songs. Please don't get excited though, because I am only contracted to record twelve (12) songs for the eleven (11) domestic tracks and one (1) additional track for Japan." MORE

December 18, 2008 - SHAWN DROVER: "KNEE-DEEP IN PROCESS OF WRITING NEW ALBUM"

SHAWN DROVER: "KNEE-DEEP IN PROCESS OF WRITING NEW ALBUM"

Shawn Drover has posted the following update on his myspace site: "...as I write this, I "think" we have 8 1/2 tunes written, and I like them all - a good musical variation thus far as well - Some fast stuff, mid paced stuff, and some slow heavy tunes as well for good balance. We are on a good path right now and are in a good creative mind-frame - certainly us having our own recording facility helps matters. This is our "home away from home" and we all like it." MORE

Megadeth RSS News Feed - right click - copy shortcut - paste to RSS Reader What is RSS?

» News Archive


REGISTER HERE TO VIEW EXCLUSIVE UPDATES & SEND YOUR OWN MESSAGES


Megadeth on the Map




Killing Road Priest Feast


Megadeth on DVD GIGANTOUR 2 DVD AND CD

That One Night: Live In Buenos Aires

Megadeth Warchest


Roadrunner Records

Megadeth Myspace

MegaFanClub

Megadeth on iLike

Gigantour.com

The Live Line





The Dave Mustaine Signature Series by Dean Guitars - click for dealers


Megamerch New - Killing Is My Business Zip Up Hoody

New - Classic Megadeth Belt Buckle



eBay MerchMegadeth eBay Store Listed Items



Net Worth Coffee Brokers NWCB Holiday Bundle


AskDaveMustaine.com

AskDaveMustaine.com

A NEW INTERACTIVE FAN EXPERIENCE!
To support the release of Megadeth's ultimate boxed set Warchest, we have developed a new interactive fan experience. Dave Mustaine has recorded videotaped answers to more than 100 questions, ranging from the basic "How tall are you?" to the more specialized "What is the origin of Vic Rattlehead?," resulting in pure metal gold! Dave comments: "I found it fun to do and quite rewarding when I hear how many people have laughed out loud for this." Check it out and ask Dave Mustaine your questions at www.AskDaveMustaine.com

United Abominations in Stores Now


Megafanclub

2008 MegaFanClub T-Shirt Art2008 MegaFanClub Premium Package THE OFFICIAL MEGADETH MEGAFANCLUB gives you the opportunity as fans to gain even more access! A membership provides a fan package including an exclusive fan club shirt, hand signed 8X10 photo, set of Megadeth guitar picks, deluxe metal Megadeth dogtag, band postcards, and Vic Rattlehead '08 sticker! Also included is one year access to the MFC website with exclusive media, private forums and chat room, live chats with the band, fan club store, auctions, contests, giveaways, blogs, news and photos, pre-sale concert tickets, your chance to meet Megadeth, and more!!
*No New Memberships Currently




Endorsements


Scorpion
ScorpioN
Every Monday, secret guest writer ScorpioN answers your questions, giving you the inside scoop on all things Megadeth! Click here for the latest release.


Megafan of the Week


FlunkCombatFlunkCombat

2008-12-24 22:56:39

Tuning: D Standard (D G C F A D)

Intro:
4/4
Fig 1:
E E S S S S E E S S S S E E S S S S E E S S S S
|-------------------------------|----
-------------------------|
|-o-----------------------------|----
-------------------------|
|-------------------------------|----
-------------------------|
|-------------------------------|----
-------------------------|
|-o-----------------------------|----
-------------------------|
|---6--0--0-0-0-0-3--0--0-0-0-0-|-3--
0--0-0-0-0-5--3--0-0-0-0-|
| - - - - - - - - - - - - - - - - - - -
| E (Q.) (H) (W)
|-------------------------------|----
-------------------------|
|-o-----------------------------|----
-------------------------|
|---3---------------------------|----
-------------------------|
|---3---------------------------|----
-------------------------|
|-o-1---------------------------|----
-------------------------|
|-------------------------------|----
-------------------------|

E E S S S S E E S S S S Q Q Q Q
|-----------------------------|------
-----------|
|-----------------------------|------
-----------|
|-----------------------------|-----4 ---3-------|
|-----------------------------|-5---4 ---3---3---|
|-----------------------------|-5---2 ---1---3---|
|-5--0--0-0-0-0-6--3--0-0-0-0-|-3----
-------1---|
| - - - - - - - - -
| (W) Q Q Q Q
|-----------------------------|------
-----------|
|-----------------------------|------
-----------|
|-----------------------------|-----4 ---3-------|
|-----------------------------|-5---4 ---3---3---|
|-----------------------------|-5---2 ---1---3---|
|-----------------------------|-3----
-------1---|

E E S S S S E E S S S S E E S S S S E E S S S S
|-----------------------------|------
-----------------------|
|-----------------------------|------
-----------------------|
|-----------------------------|------
-----------------------|
|-----------------------------|------
-----------------------|
|-----------------------------|------
-----------------------|
|-6--0--0-0-0-0-3--0--0-0-0-0-|-3--0-
-0-0-0-0-5--3--0-0-0-0-|
| - - - - - - - - - - - - - - - - - - -
| E (Q.) (H) (W)
|-----------------------------|------
-----------------------|
|-----------------------------|------
-----------------------|
|-3---------------------------|------
-----------------------|
|-3---------------------------|------
-----------------------|
|-1---------------------------|------
-----------------------|
|-----------------------------|------
-----------------------|

_____________________________________
_________________________________
|1.
| S S S S S S S S S S S S S S S S S S S S S S S S S S S S S S S S
|---------------------------------|--
---------------------------------|
|---------------------------------|--
-------------------------------o-|
|---------------------------------|--
---------------------------------|
|---------------------------------|--
---------------------------------|
|---------5-5-5-5-4-4-4-4---------|-4 -4-4-4-------------------------o-|
|-6-6-6-6-----------------5-5-5-5-|--
-------6-6-6-6-3-3-3-3-5-5-5-5---|
| - - - - - - - - - - - - - - - - - - - - - - - - - - - - - - - -
| (W) (W)
|---------------------------------|--
---------------------------------|
|---------------------------------|--
-------------------------------o-|
|---------------------------------|--
---------------------------------|
|---------------------------------|--
---------------------------------|
|---------------------------------|--
-------------------------------o-|
|---------------------------------|--
---------------------------------|

_____________________________________
_______________________________
|2.
| S S S S S S S S S S S S S S S S S S S S S S S S S S S S E (E)
|---------------------------------|--
-----------------------------|
|---------------------------------|--
-----------------------------|
|---------------------------------|--
-----------------------------|
|---------------------------------|--
-----------------------------|
|-----------------1-1-1-1-2-2-2-2-|-3 -3-3-3-2-2-2-2-0-0-0-0-7-----|
|-3-3-3-3-5-5-5-5-----------------|--
-----------------------0-----|
| - - - - - - - - - - - - - - - - - - - - - - - - - - - -
|
| S S S S S S S S S S S S S S S S S S S S S S S S S S S S E (E)
|---------------------------------|--
-----------------------------|
|---------------------------------|--
-----------------------------|
|---------------------------------|--
-----------------------------|
|---------------------------------|--
-----------------------------|
|-0-0-0-0-1-1-1-1-3-3-3-3-5-5-5-5-|-6 -6-6-6-5-5-5-5-3-3-3-3-0-----|
|---------------------------------|--
-----------------------------|
- - - - - - - - - - - - - - - - - - - - - - - - - - - -

Fig 2: (Both Guitars)
E E E S S E E S S E E E E E E E E E
|--------------------------|---------
--------|
|-o------------------------|---------
--------|
|--------------------------|---------
--------|
|--------------------------|---------
--------|
|-o-7h8p7------------------|-------5-
--------|
|---------0-0-0--0--3-0-0--|-3-2-0---
0-0-6-0-|
- - - - - - - - - -

E E E S S E E S S E E E E E E E E E
|------------------------|-----------
------|
|------------------------|-----------
------|
|------------------------|-----------
------|
|------------------------|-----------
------|
|-7h8p7------------------|---5-3-0-3-
2-0-2-|
|-------0-0-0--0--3-0-0--|-0---------
------|
- - - - - - - - -


FlunkCombatFlunkCombat

2008-12-24 22:57:28

Tuning: D Standard (D G C F A D)

Intro:
4/4
Fig 1:
E E S S S S E E S S S S E E S S S S E E S S S S
|-------------------------------|----
-------------------------|
|-o-----------------------------|----
-------------------------|
|-------------------------------|----
-------------------------|
|-------------------------------|----
-------------------------|
|-o-----------------------------|----
-------------------------|
|---6--0--0-0-0-0-3--0--0-0-0-0-|-3--
0--0-0-0-0-5--3--0-0-0-0-|
| - - - - - - - - - - - - - - - - - - -
| E (Q.) (H) (W)
|-------------------------------|----
-------------------------|
|-o-----------------------------|----
-------------------------|
|---3---------------------------|----
-------------------------|
|---3---------------------------|----
-------------------------|
|-o-1---------------------------|----
-------------------------|
|-------------------------------|----
-------------------------|

E E S S S S E E S S S S Q Q Q Q
|-----------------------------|------
-----------|
|-----------------------------|------
-----------|
|-----------------------------|-----4 ---3-------|
|-----------------------------|-5---4 ---3---3---|
|-----------------------------|-5---2 ---1---3---|
|-5--0--0-0-0-0-6--3--0-0-0-0-|-3----
-------1---|
| - - - - - - - - -
| (W) Q Q Q Q
|-----------------------------|------
-----------|
|-----------------------------|------
-----------|
|-----------------------------|-----4 ---3-------|
|-----------------------------|-5---4 ---3---3---|
|-----------------------------|-5---2 ---1---3---|
|-----------------------------|-3----
-------1---|

E E S S S S E E S S S S E E S S S S E E S S S S
|-----------------------------|------
-----------------------|
|-----------------------------|------
-----------------------|
|-----------------------------|------
-----------------------|
|-----------------------------|------
-----------------------|
|-----------------------------|------
-----------------------|
|-6--0--0-0-0-0-3--0--0-0-0-0-|-3--0-
-0-0-0-0-5--3--0-0-0-0-|
| - - - - - - - - - - - - - - - - - - -
| E (Q.) (H) (W)
|-----------------------------|------
-----------------------|
|-----------------------------|------
-----------------------|
|-3---------------------------|------
-----------------------|
|-3---------------------------|------
-----------------------|
|-1---------------------------|------
-----------------------|
|-----------------------------|------
-----------------------|

_____________________________________
_________________________________
|1.
| S S S S S S S S S S S S S S S S S S S S S S S S S S S S S S S S
|---------------------------------|--
---------------------------------|
|---------------------------------|--
-------------------------------o-|
|---------------------------------|--
---------------------------------|
|---------------------------------|--
---------------------------------|
|---------5-5-5-5-4-4-4-4---------|-4 -4-4-4-------------------------o-|
|-6-6-6-6-----------------5-5-5-5-|--
-------6-6-6-6-3-3-3-3-5-5-5-5---|
| - - - - - - - - - - - - - - - - - - - - - - - - - - - - - - - -
| (W) (W)
|---------------------------------|--
---------------------------------|
|---------------------------------|--
-------------------------------o-|
|---------------------------------|--
---------------------------------|
|---------------------------------|--
---------------------------------|
|---------------------------------|--
-------------------------------o-|
|---------------------------------|--
---------------------------------|

_____________________________________
_______________________________
|2.
| S S S S S S S S S S S S S S S S S S S S S S S S S S S S E (E)
|---------------------------------|--
-----------------------------|
|---------------------------------|--
-----------------------------|
|---------------------------------|--
-----------------------------|
|---------------------------------|--
-----------------------------|
|-----------------1-1-1-1-2-2-2-2-|-3 -3-3-3-2-2-2-2-0-0-0-0-7-----|
|-3-3-3-3-5-5-5-5-----------------|--
-----------------------0-----|
| - - - - - - - - - - - - - - - - - - - - - - - - - - - -
|
| S S S S S S S S S S S S S S S S S S S S S S S S S S S S E (E)
|---------------------------------|--
-----------------------------|
|---------------------------------|--
-----------------------------|
|---------------------------------|--
-----------------------------|
|---------------------------------|--
-----------------------------|
|-0-0-0-0-1-1-1-1-3-3-3-3-5-5-5-5-|-6 -6-6-6-5-5-5-5-3-3-3-3-0-----|
|---------------------------------|--
-----------------------------|
- - - - - - - - - - - - - - - - - - - - - - - - - - - -

Fig 2: (Both Guitars)
E E E S S E E S S E E E E E E E E E
|--------------------------|---------
--------|
|-o------------------------|---------
--------|
|--------------------------|---------
--------|
|--------------------------|---------
--------|
|-o-7h8p7------------------|-------5-
--------|
|---------0-0-0--0--3-0-0--|-3-2-0---
0-0-6-0-|
- - - - - - - - - -

E E E S S E E S S E E E E E E E E E
|------------------------|-----------
------|
|------------------------|-----------
------|
|------------------------|-----------
------|
|------------------------|-----------
------|
|-7h8p7------------------|---5-3-0-3-
2-0-2-|
|-------0-0-0--0--3-0-0--|-0---------
------|
- - - - - - - - -


FlunkCombatFlunkCombat

2008-12-24 22:57:39

Tuning: D Standard (D G C F A D)

Intro:
4/4
Fig 1:
E E S S S S E E S S S S E E S S S S E E S S S S
|-------------------------------|----
-------------------------|
|-o-----------------------------|----
-------------------------|
|-------------------------------|----
-------------------------|
|-------------------------------|----
-------------------------|
|-o-----------------------------|----
-------------------------|
|---6--0--0-0-0-0-3--0--0-0-0-0-|-3--
0--0-0-0-0-5--3--0-0-0-0-|
| - - - - - - - - - - - - - - - - - - -
| E (Q.) (H) (W)
|-------------------------------|----
-------------------------|
|-o-----------------------------|----
-------------------------|
|---3---------------------------|----
-------------------------|
|---3---------------------------|----
-------------------------|
|-o-1---------------------------|----
-------------------------|
|-------------------------------|----
-------------------------|

E E S S S S E E S S S S Q Q Q Q
|-----------------------------|------
-----------|
|-----------------------------|------
-----------|
|-----------------------------|-----4 ---3-------|
|-----------------------------|-5---4 ---3---3---|
|-----------------------------|-5---2 ---1---3---|
|-5--0--0-0-0-0-6--3--0-0-0-0-|-3----
-------1---|
| - - - - - - - - -
| (W) Q Q Q Q
|-----------------------------|------
-----------|
|-----------------------------|------
-----------|
|-----------------------------|-----4 ---3-------|
|-----------------------------|-5---4 ---3---3---|
|-----------------------------|-5---2 ---1---3---|
|-----------------------------|-3----
-------1---|

E E S S S S E E S S S S E E S S S S E E S S S S
|-----------------------------|------
-----------------------|
|-----------------------------|------
-----------------------|
|-----------------------------|------
-----------------------|
|-----------------------------|------
-----------------------|
|-----------------------------|------
-----------------------|
|-6--0--0-0-0-0-3--0--0-0-0-0-|-3--0-
-0-0-0-0-5--3--0-0-0-0-|
| - - - - - - - - - - - - - - - - - - -
| E (Q.) (H) (W)
|-----------------------------|------
-----------------------|
|-----------------------------|------
-----------------------|
|-3---------------------------|------
-----------------------|
|-3---------------------------|------
-----------------------|
|-1---------------------------|------
-----------------------|
|-----------------------------|------
-----------------------|

_____________________________________
_________________________________
|1.
| S S S S S S S S S S S S S S S S S S S S S S S S S S S S S S S S
|---------------------------------|--
---------------------------------|
|---------------------------------|--
-------------------------------o-|
|---------------------------------|--
---------------------------------|
|---------------------------------|--
---------------------------------|
|---------5-5-5-5-4-4-4-4---------|-4 -4-4-4-------------------------o-|
|-6-6-6-6-----------------5-5-5-5-|--
-------6-6-6-6-3-3-3-3-5-5-5-5---|
| - - - - - - - - - - - - - - - - - - - - - - - - - - - - - - - -
| (W) (W)
|---------------------------------|--
---------------------------------|
|---------------------------------|--
-------------------------------o-|
|---------------------------------|--
---------------------------------|
|---------------------------------|--
---------------------------------|
|---------------------------------|--
-------------------------------o-|
|---------------------------------|--
---------------------------------|

_____________________________________
_______________________________
|2.
| S S S S S S S S S S S S S S S S S S S S S S S S S S S S E (E)
|---------------------------------|--
-----------------------------|
|---------------------------------|--
-----------------------------|
|---------------------------------|--
-----------------------------|
|---------------------------------|--
-----------------------------|
|-----------------1-1-1-1-2-2-2-2-|-3 -3-3-3-2-2-2-2-0-0-0-0-7-----|
|-3-3-3-3-5-5-5-5-----------------|--
-----------------------0-----|
| - - - - - - - - - - - - - - - - - - - - - - - - - - - -
|
| S S S S S S S S S S S S S S S S S S S S S S S S S S S S E (E)
|---------------------------------|--
-----------------------------|
|---------------------------------|--
-----------------------------|
|---------------------------------|--
-----------------------------|
|---------------------------------|--
-----------------------------|
|-0-0-0-0-1-1-1-1-3-3-3-3-5-5-5-5-|-6 -6-6-6-5-5-5-5-3-3-3-3-0-----|
|---------------------------------|--
-----------------------------|
- - - - - - - - - - - - - - - - - - - - - - - - - - - -

Fig 2: (Both Guitars)
E E E S S E E S S E E E E E E E E E
|--------------------------|---------
--------|
|-o------------------------|---------
--------|
|--------------------------|---------
--------|
|--------------------------|---------
--------|
|-o-7h8p7------------------|-------5-
--------|
|---------0-0-0--0--3-0-0--|-3-2-0---
0-0-6-0-|
- - - - - - - - - -

E E E S S E E S S E E E E E E E E E
|------------------------|-----------
------|
|------------------------|-----------
------|
|------------------------|-----------
------|
|------------------------|-----------
------|
|-7h8p7------------------|---5-3-0-3-
2-0-2-|
|-------0-0-0--0--3-0-0--|-0---------
------|
- - - - - - - - -


FlunkCombatFlunkCombat

2008-12-24 22:57:55

Tuning: D Standard (D G C F A D)

Intro:
4/4
Fig 1:
E E S S S S E E S S S S E E S S S S E E S S S S
|-------------------------------|----
-------------------------|
|-o-----------------------------|----
-------------------------|
|-------------------------------|----
-------------------------|
|-------------------------------|----
-------------------------|
|-o-----------------------------|----
-------------------------|
|---6--0--0-0-0-0-3--0--0-0-0-0-|-3--
0--0-0-0-0-5--3--0-0-0-0-|
| - - - - - - - - - - - - - - - - - - -
| E (Q.) (H) (W)
|-------------------------------|----
-------------------------|
|-o-----------------------------|----
-------------------------|
|---3---------------------------|----
-------------------------|
|---3---------------------------|----
-------------------------|
|-o-1---------------------------|----
-------------------------|
|-------------------------------|----
-------------------------|

E E S S S S E E S S S S Q Q Q Q
|-----------------------------|------
-----------|
|-----------------------------|------
-----------|
|-----------------------------|-----4 ---3-------|
|-----------------------------|-5---4 ---3---3---|
|-----------------------------|-5---2 ---1---3---|
|-5--0--0-0-0-0-6--3--0-0-0-0-|-3----
-------1---|
| - - - - - - - - -
| (W) Q Q Q Q
|-----------------------------|------
-----------|
|-----------------------------|------
-----------|
|-----------------------------|-----4 ---3-------|
|-----------------------------|-5---4 ---3---3---|
|-----------------------------|-5---2 ---1---3---|
|-----------------------------|-3----
-------1---|

E E S S S S E E S S S S E E S S S S E E S S S S
|-----------------------------|------
-----------------------|
|-----------------------------|------
-----------------------|
|-----------------------------|------
-----------------------|
|-----------------------------|------
-----------------------|
|-----------------------------|------
-----------------------|
|-6--0--0-0-0-0-3--0--0-0-0-0-|-3--0-
-0-0-0-0-5--3--0-0-0-0-|
| - - - - - - - - - - - - - - - - - - -
| E (Q.) (H) (W)
|-----------------------------|------
-----------------------|
|-----------------------------|------
-----------------------|
|-3---------------------------|------
-----------------------|
|-3---------------------------|------
-----------------------|
|-1---------------------------|------
-----------------------|
|-----------------------------|------
-----------------------|

_____________________________________
_________________________________
|1.
| S S S S S S S S S S S S S S S S S S S S S S S S S S S S S S S S
|---------------------------------|--
---------------------------------|
|---------------------------------|--
-------------------------------o-|
|---------------------------------|--
---------------------------------|
|---------------------------------|--
---------------------------------|
|---------5-5-5-5-4-4-4-4---------|-4 -4-4-4-------------------------o-|
|-6-6-6-6-----------------5-5-5-5-|--
-------6-6-6-6-3-3-3-3-5-5-5-5---|
| - - - - - - - - - - - - - - - - - - - - - - - - - - - - - - - -
| (W) (W)
|---------------------------------|--
---------------------------------|
|---------------------------------|--
-------------------------------o-|
|---------------------------------|--
---------------------------------|
|---------------------------------|--
---------------------------------|
|---------------------------------|--
-------------------------------o-|
|---------------------------------|--
---------------------------------|

_____________________________________
_______________________________
|2.
| S S S S S S S S S S S S S S S S S S S S S S S S S S S S E (E)
|---------------------------------|--
-----------------------------|
|---------------------------------|--
-----------------------------|
|---------------------------------|--
-----------------------------|
|---------------------------------|--
-----------------------------|
|-----------------1-1-1-1-2-2-2-2-|-3 -3-3-3-2-2-2-2-0-0-0-0-7-----|
|-3-3-3-3-5-5-5-5-----------------|--
-----------------------0-----|
| - - - - - - - - - - - - - - - - - - - - - - - - - - - -
|
| S S S S S S S S S S S S S S S S S S S S S S S S S S S S E (E)
|---------------------------------|--
-----------------------------|
|---------------------------------|--
-----------------------------|
|---------------------------------|--
-----------------------------|
|---------------------------------|--
-----------------------------|
|-0-0-0-0-1-1-1-1-3-3-3-3-5-5-5-5-|-6 -6-6-6-5-5-5-5-3-3-3-3-0-----|
|---------------------------------|--
-----------------------------|
- - - - - - - - - - - - - - - - - - - - - - - - - - - -

Fig 2: (Both Guitars)
E E E S S E E S S E E E E E E E E E
|--------------------------|---------
--------|
|-o------------------------|---------
--------|
|--------------------------|---------
--------|
|--------------------------|---------
--------|
|-o-7h8p7------------------|-------5-
--------|
|---------0-0-0--0--3-0-0--|-3-2-0---
0-0-6-0-|
- - - - - - - - - -

E E E S S E E S S E E E E E E E E E
|------------------------|-----------
------|
|------------------------|-----------
------|
|------------------------|-----------
------|
|------------------------|-----------
------|
|-7h8p7------------------|---5-3-0-3-
2-0-2-|
|-------0-0-0--0--3-0-0--|-0---------
------|
- - - - - - - - -


FlunkCombatFlunkCombat

2008-12-24 22:58:33

Tuning: D Standard (D G C F A D)

Intro:
4/4
Fig 1:
E E S S S S E E S S S S E E S S S S E E S S S S
|-------------------------------|----
-------------------------|
|-o-----------------------------|----
-------------------------|
|-------------------------------|----
-------------------------|
|-------------------------------|----
-------------------------|
|-o-----------------------------|----
-------------------------|
|---6--0--0-0-0-0-3--0--0-0-0-0-|-3--
0--0-0-0-0-5--3--0-0-0-0-|
| - - - - - - - - - - - - - - - - - - -
| E (Q.) (H) (W)
|-------------------------------|----
-------------------------|
|-o-----------------------------|----
-------------------------|
|---3---------------------------|----
-------------------------|
|---3---------------------------|----
-------------------------|
|-o-1---------------------------|----
-------------------------|
|-------------------------------|----
-------------------------|

E E S S S S E E S S S S Q Q Q Q
|-----------------------------|------
-----------|
|-----------------------------|------
-----------|
|-----------------------------|-----4 ---3-------|
|-----------------------------|-5---4 ---3---3---|
|-----------------------------|-5---2 ---1---3---|
|-5--0--0-0-0-0-6--3--0-0-0-0-|-3----
-------1---|
| - - - - - - - - -
| (W) Q Q Q Q
|-----------------------------|------
-----------|
|-----------------------------|------
-----------|
|-----------------------------|-----4 ---3-------|
|-----------------------------|-5---4 ---3---3---|
|-----------------------------|-5---2 ---1---3---|
|-----------------------------|-3----
-------1---|

E E S S S S E E S S S S E E S S S S E E S S S S
|-----------------------------|------
-----------------------|
|-----------------------------|------
-----------------------|
|-----------------------------|------
-----------------------|
|-----------------------------|------
-----------------------|
|-----------------------------|------
-----------------------|
|-6--0--0-0-0-0-3--0--0-0-0-0-|-3--0-
-0-0-0-0-5--3--0-0-0-0-|
| - - - - - - - - - - - - - - - - - - -
| E (Q.) (H) (W)
|-----------------------------|------
-----------------------|
|-----------------------------|------
-----------------------|
|-3---------------------------|------
-----------------------|
|-3---------------------------|------
-----------------------|
|-1---------------------------|------
-----------------------|
|-----------------------------|------
-----------------------|

_____________________________________
_________________________________
|1.
| S S S S S S S S S S S S S S S S S S S S S S S S S S S S S S S S
|---------------------------------|--
---------------------------------|
|---------------------------------|--
-------------------------------o-|
|---------------------------------|--
---------------------------------|
|---------------------------------|--
---------------------------------|
|---------5-5-5-5-4-4-4-4---------|-4 -4-4-4-------------------------o-|
|-6-6-6-6-----------------5-5-5-5-|--
-------6-6-6-6-3-3-3-3-5-5-5-5---|
| - - - - - - - - - - - - - - - - - - - - - - - - - - - - - - - -
| (W) (W)
|---------------------------------|--
---------------------------------|
|---------------------------------|--
-------------------------------o-|
|---------------------------------|--
---------------------------------|
|---------------------------------|--
---------------------------------|
|---------------------------------|--
-------------------------------o-|
|---------------------------------|--
---------------------------------|

_____________________________________
_______________________________
|2.
| S S S S S S S S S S S S S S S S S S S S S S S S S S S S E (E)
|---------------------------------|--
-----------------------------|
|---------------------------------|--
-----------------------------|
|---------------------------------|--
-----------------------------|
|---------------------------------|--
-----------------------------|
|-----------------1-1-1-1-2-2-2-2-|-3 -3-3-3-2-2-2-2-0-0-0-0-7-----|
|-3-3-3-3-5-5-5-5-----------------|--
-----------------------0-----|
| - - - - - - - - - - - - - - - - - - - - - - - - - - - -
|
| S S S S S S S S S S S S S S S S S S S S S S S S S S S S E (E)
|---------------------------------|--
-----------------------------|
|---------------------------------|--
-----------------------------|
|---------------------------------|--
-----------------------------|
|---------------------------------|--
-----------------------------|
|-0-0-0-0-1-1-1-1-3-3-3-3-5-5-5-5-|-6 -6-6-6-5-5-5-5-3-3-3-3-0-----|
|---------------------------------|--
-----------------------------|
- - - - - - - - - - - - - - - - - - - - - - - - - - - -

Fig 2: (Both Guitars)
E E E S S E E S S E E E E E E E E E
|--------------------------|---------
--------|
|-o------------------------|---------
--------|
|--------------------------|---------
--------|
|--------------------------|---------
--------|
|-o-7h8p7------------------|-------5-
--------|
|---------0-0-0--0--3-0-0--|-3-2-0---
0-0-6-0-|
- - - - - - - - - -

E E E S S E E S S E E E E E E E E E
|------------------------|-----------
------|
|------------------------|-----------
------|
|------------------------|-----------
------|
|------------------------|-----------
------|
|-7h8p7------------------|---5-3-0-3-
2-0-2-|
|-------0-0-0--0--3-0-0--|-0---------
------|
- - - - - - - - -


FlunkCombatFlunkCombat

2008-12-24 22:58:49

Tuning: D Standard (D G C F A D)

Intro:
4/4
Fig 1:
E E S S S S E E S S S S E E S S S S E E S S S S
|-------------------------------|----
-------------------------|
|-o-----------------------------|----
-------------------------|
|-------------------------------|----
-------------------------|
|-------------------------------|----
-------------------------|
|-o-----------------------------|----
-------------------------|
|---6--0--0-0-0-0-3--0--0-0-0-0-|-3--
0--0-0-0-0-5--3--0-0-0-0-|
| - - - - - - - - - - - - - - - - - - -
| E (Q.) (H) (W)
|-------------------------------|----
-------------------------|
|-o-----------------------------|----
-------------------------|
|---3---------------------------|----
-------------------------|
|---3---------------------------|----
-------------------------|
|-o-1---------------------------|----
-------------------------|
|-------------------------------|----
-------------------------|

E E S S S S E E S S S S Q Q Q Q
|-----------------------------|------
-----------|
|-----------------------------|------
-----------|
|-----------------------------|-----4 ---3-------|
|-----------------------------|-5---4 ---3---3---|
|-----------------------------|-5---2 ---1---3---|
|-5--0--0-0-0-0-6--3--0-0-0-0-|-3----
-------1---|
| - - - - - - - - -
| (W) Q Q Q Q
|-----------------------------|------
-----------|
|-----------------------------|------
-----------|
|-----------------------------|-----4 ---3-------|
|-----------------------------|-5---4 ---3---3---|
|-----------------------------|-5---2 ---1---3---|
|-----------------------------|-3----
-------1---|

E E S S S S E E S S S S E E S S S S E E S S S S
|-----------------------------|------
-----------------------|
|-----------------------------|------
-----------------------|
|-----------------------------|------
-----------------------|
|-----------------------------|------
-----------------------|
|-----------------------------|------
-----------------------|
|-6--0--0-0-0-0-3--0--0-0-0-0-|-3--0-
-0-0-0-0-5--3--0-0-0-0-|
| - - - - - - - - - - - - - - - - - - -
| E (Q.) (H) (W)
|-----------------------------|------
-----------------------|
|-----------------------------|------
-----------------------|
|-3---------------------------|------
-----------------------|
|-3---------------------------|------
-----------------------|
|-1---------------------------|------
-----------------------|
|-----------------------------|------
-----------------------|

_____________________________________
_________________________________
|1.
| S S S S S S S S S S S S S S S S S S S S S S S S S S S S S S S S
|---------------------------------|--
---------------------------------|
|---------------------------------|--
-------------------------------o-|
|---------------------------------|--
---------------------------------|
|---------------------------------|--
---------------------------------|
|---------5-5-5-5-4-4-4-4---------|-4 -4-4-4-------------------------o-|
|-6-6-6-6-----------------5-5-5-5-|--
-------6-6-6-6-3-3-3-3-5-5-5-5---|
| - - - - - - - - - - - - - - - - - - - - - - - - - - - - - - - -
| (W) (W)
|---------------------------------|--
---------------------------------|
|---------------------------------|--
-------------------------------o-|
|---------------------------------|--
---------------------------------|
|---------------------------------|--
---------------------------------|
|---------------------------------|--
-------------------------------o-|
|---------------------------------|--
---------------------------------|

_____________________________________
_______________________________
|2.
| S S S S S S S S S S S S S S S S S S S S S S S S S S S S E (E)
|---------------------------------|--
-----------------------------|
|---------------------------------|--
-----------------------------|
|---------------------------------|--
-----------------------------|
|---------------------------------|--
-----------------------------|
|-----------------1-1-1-1-2-2-2-2-|-3 -3-3-3-2-2-2-2-0-0-0-0-7-----|
|-3-3-3-3-5-5-5-5-----------------|--
-----------------------0-----|
| - - - - - - - - - - - - - - - - - - - - - - - - - - - -
|
| S S S S S S S S S S S S S S S S S S S S S S S S S S S S E (E)
|---------------------------------|--
-----------------------------|
|---------------------------------|--
-----------------------------|
|---------------------------------|--
-----------------------------|
|---------------------------------|--
-----------------------------|
|-0-0-0-0-1-1-1-1-3-3-3-3-5-5-5-5-|-6 -6-6-6-5-5-5-5-3-3-3-3-0-----|
|---------------------------------|--
-----------------------------|
- - - - - - - - - - - - - - - - - - - - - - - - - - - -

Fig 2: (Both Guitars)
E E E S S E E S S E E E E E E E E E
|--------------------------|---------
--------|
|-o------------------------|---------
--------|
|--------------------------|---------
--------|
|--------------------------|---------
--------|
|-o-7h8p7------------------|-------5-
--------|
|---------0-0-0--0--3-0-0--|-3-2-0---
0-0-6-0-|
- - - - - - - - - -

E E E S S E E S S E E E E E E E E E
|------------------------|-----------
------|
|------------------------|-----------
------|
|------------------------|-----------
------|
|------------------------|-----------
------|
|-7h8p7------------------|---5-3-0-3-
2-0-2-|
|-------0-0-0--0--3-0-0--|-0---------
------|
- - - - - - - - -


FlunkCombatFlunkCombat

2008-12-24 22:59:26

Tuning: D Standard (D G C F A D)

Intro:
4/4
Fig 1:
E E S S S S E E S S S S E E S S S S E E S S S S
|-------------------------------|----
-------------------------|
|-o-----------------------------|----
-------------------------|
|-------------------------------|----
-------------------------|
|-------------------------------|----
-------------------------|
|-o-----------------------------|----
-------------------------|
|---6--0--0-0-0-0-3--0--0-0-0-0-|-3--
0--0-0-0-0-5--3--0-0-0-0-|
| - - - - - - - - - - - - - - - - - - -
| E (Q.) (H) (W)
|-------------------------------|----
-------------------------|
|-o-----------------------------|----
-------------------------|
|---3---------------------------|----
-------------------------|
|---3---------------------------|----
-------------------------|
|-o-1---------------------------|----
-------------------------|
|-------------------------------|----
-------------------------|

E E S S S S E E S S S S Q Q Q Q
|-----------------------------|------
-----------|
|-----------------------------|------
-----------|
|-----------------------------|-----4 ---3-------|
|-----------------------------|-5---4 ---3---3---|
|-----------------------------|-5---2 ---1---3---|
|-5--0--0-0-0-0-6--3--0-0-0-0-|-3----
-------1---|
| - - - - - - - - -
| (W) Q Q Q Q
|-----------------------------|------
-----------|
|-----------------------------|------
-----------|
|-----------------------------|-----4 ---3-------|
|-----------------------------|-5---4 ---3---3---|
|-----------------------------|-5---2 ---1---3---|
|-----------------------------|-3----
-------1---|

E E S S S S E E S S S S E E S S S S E E S S S S
|-----------------------------|------
-----------------------|
|-----------------------------|------
-----------------------|
|-----------------------------|------
-----------------------|
|-----------------------------|------
-----------------------|
|-----------------------------|------
-----------------------|
|-6--0--0-0-0-0-3--0--0-0-0-0-|-3--0-
-0-0-0-0-5--3--0-0-0-0-|
| - - - - - - - - - - - - - - - - - - -
| E (Q.) (H) (W)
|-----------------------------|------
-----------------------|
|-----------------------------|------
-----------------------|
|-3---------------------------|------
-----------------------|
|-3---------------------------|------
-----------------------|
|-1---------------------------|------
-----------------------|
|-----------------------------|------
-----------------------|

_____________________________________
_________________________________
|1.
| S S S S S S S S S S S S S S S S S S S S S S S S S S S S S S S S
|---------------------------------|--
---------------------------------|
|---------------------------------|--
-------------------------------o-|
|---------------------------------|--
---------------------------------|
|---------------------------------|--
---------------------------------|
|---------5-5-5-5-4-4-4-4---------|-4 -4-4-4-------------------------o-|
|-6-6-6-6-----------------5-5-5-5-|--
-------6-6-6-6-3-3-3-3-5-5-5-5---|
| - - - - - - - - - - - - - - - - - - - - - - - - - - - - - - - -
| (W) (W)
|---------------------------------|--
---------------------------------|
|---------------------------------|--
-------------------------------o-|
|---------------------------------|--
---------------------------------|
|---------------------------------|--
---------------------------------|
|---------------------------------|--
-------------------------------o-|
|---------------------------------|--
---------------------------------|

_____________________________________
_______________________________
|2.
| S S S S S S S S S S S S S S S S S S S S S S S S S S S S E (E)
|---------------------------------|--
-----------------------------|
|---------------------------------|--
-----------------------------|
|---------------------------------|--
-----------------------------|
|---------------------------------|--
-----------------------------|
|-----------------1-1-1-1-2-2-2-2-|-3 -3-3-3-2-2-2-2-0-0-0-0-7-----|
|-3-3-3-3-5-5-5-5-----------------|--
-----------------------0-----|
| - - - - - - - - - - - - - - - - - - - - - - - - - - - -
|
| S S S S S S S S S S S S S S S S S S S S S S S S S S S S E (E)
|---------------------------------|--
-----------------------------|
|---------------------------------|--
-----------------------------|
|---------------------------------|--
-----------------------------|
|---------------------------------|--
-----------------------------|
|-0-0-0-0-1-1-1-1-3-3-3-3-5-5-5-5-|-6 -6-6-6-5-5-5-5-3-3-3-3-0-----|
|---------------------------------|--
-----------------------------|
- - - - - - - - - - - - - - - - - - - - - - - - - - - -

Fig 2: (Both Guitars)
E E E S S E E S S E E E E E E E E E
|--------------------------|---------
--------|
|-o------------------------|---------
--------|
|--------------------------|---------
--------|
|--------------------------|---------
--------|
|-o-7h8p7------------------|-------5-
--------|
|---------0-0-0--0--3-0-0--|-3-2-0---
0-0-6-0-|
- - - - - - - - - -

E E E S S E E S S E E E E E E E E E
|------------------------|-----------
------|
|------------------------|-----------
------|
|------------------------|-----------
------|
|------------------------|-----------
------|
|-7h8p7------------------|---5-3-0-3-
2-0-2-|
|-------0-0-0--0--3-0-0--|-0---------
------|
- - - - - - - - -


FlunkCombatFlunkCombat

2008-12-24 22:59:38

Tuning: D Standard (D G C F A D)

Intro:
4/4
Fig 1:
E E S S S S E E S S S S E E S S S S E E S S S S
|-------------------------------|----
-------------------------|
|-o-----------------------------|----
-------------------------|
|-------------------------------|----
-------------------------|
|-------------------------------|----
-------------------------|
|-o-----------------------------|----
-------------------------|
|---6--0--0-0-0-0-3--0--0-0-0-0-|-3--
0--0-0-0-0-5--3--0-0-0-0-|
| - - - - - - - - - - - - - - - - - - -
| E (Q.) (H) (W)
|-------------------------------|----
-------------------------|
|-o-----------------------------|----
-------------------------|
|---3---------------------------|----
-------------------------|
|---3---------------------------|----
-------------------------|
|-o-1---------------------------|----
-------------------------|
|-------------------------------|----
-------------------------|

E E S S S S E E S S S S Q Q Q Q
|-----------------------------|------
-----------|
|-----------------------------|------
-----------|
|-----------------------------|-----4 ---3-------|
|-----------------------------|-5---4 ---3---3---|
|-----------------------------|-5---2 ---1---3---|
|-5--0--0-0-0-0-6--3--0-0-0-0-|-3----
-------1---|
| - - - - - - - - -
| (W) Q Q Q Q
|-----------------------------|------
-----------|
|-----------------------------|------
-----------|
|-----------------------------|-----4 ---3-------|
|-----------------------------|-5---4 ---3---3---|
|-----------------------------|-5---2 ---1---3---|
|-----------------------------|-3----
-------1---|

E E S S S S E E S S S S E E S S S S E E S S S S
|-----------------------------|------
-----------------------|
|-----------------------------|------
-----------------------|
|-----------------------------|------
-----------------------|
|-----------------------------|------
-----------------------|
|-----------------------------|------
-----------------------|
|-6--0--0-0-0-0-3--0--0-0-0-0-|-3--0-
-0-0-0-0-5--3--0-0-0-0-|
| - - - - - - - - - - - - - - - - - - -
| E (Q.) (H) (W)
|-----------------------------|------
-----------------------|
|-----------------------------|------
-----------------------|
|-3---------------------------|------
-----------------------|
|-3---------------------------|------
-----------------------|
|-1---------------------------|------
-----------------------|
|-----------------------------|------
-----------------------|

_____________________________________
_________________________________
|1.
| S S S S S S S S S S S S S S S S S S S S S S S S S S S S S S S S
|---------------------------------|--
---------------------------------|
|---------------------------------|--
-------------------------------o-|
|---------------------------------|--
---------------------------------|
|---------------------------------|--
---------------------------------|
|---------5-5-5-5-4-4-4-4---------|-4 -4-4-4-------------------------o-|
|-6-6-6-6-----------------5-5-5-5-|--
-------6-6-6-6-3-3-3-3-5-5-5-5---|
| - - - - - - - - - - - - - - - - - - - - - - - - - - - - - - - -
| (W) (W)
|---------------------------------|--
---------------------------------|
|---------------------------------|--
-------------------------------o-|
|---------------------------------|--
---------------------------------|
|---------------------------------|--
---------------------------------|
|---------------------------------|--
-------------------------------o-|
|---------------------------------|--
---------------------------------|

_____________________________________
_______________________________
|2.
| S S S S S S S S S S S S S S S S S S S S S S S S S S S S E (E)
|---------------------------------|--
-----------------------------|
|---------------------------------|--
-----------------------------|
|---------------------------------|--
-----------------------------|
|---------------------------------|--
-----------------------------|
|-----------------1-1-1-1-2-2-2-2-|-3 -3-3-3-2-2-2-2-0-0-0-0-7-----|
|-3-3-3-3-5-5-5-5-----------------|--
-----------------------0-----|
| - - - - - - - - - - - - - - - - - - - - - - - - - - - -
|
| S S S S S S S S S S S S S S S S S S S S S S S S S S S S E (E)
|---------------------------------|--
-----------------------------|
|---------------------------------|--
-----------------------------|
|---------------------------------|--
-----------------------------|
|---------------------------------|--
-----------------------------|
|-0-0-0-0-1-1-1-1-3-3-3-3-5-5-5-5-|-6 -6-6-6-5-5-5-5-3-3-3-3-0-----|
|---------------------------------|--
-----------------------------|
- - - - - - - - - - - - - - - - - - - - - - - - - - - -

Fig 2: (Both Guitars)
E E E S S E E S S E E E E E E E E E
|--------------------------|---------
--------|
|-o------------------------|---------
--------|
|--------------------------|---------
--------|
|--------------------------|---------
--------|
|-o-7h8p7------------------|-------5-
--------|
|---------0-0-0--0--3-0-0--|-3-2-0---
0-0-6-0-|
- - - - - - - - - -

E E E S S E E S S E E E E E E E E E
|------------------------|-----------
------|
|------------------------|-----------
------|
|------------------------|-----------
------|
|------------------------|-----------
------|
|-7h8p7------------------|---5-3-0-3-
2-0-2-|
|-------0-0-0--0--3-0-0--|-0---------
------|
- - - - - - - - -


FlunkCombatFlunkCombat

2008-12-24 22:59:46

Tuning: D Standard (D G C F A D)

Intro:
4/4
Fig 1:
E E S S S S E E S S S S E E S S S S E E S S S S
|-------------------------------|----
-------------------------|
|-o-----------------------------|----
-------------------------|
|-------------------------------|----
-------------------------|
|-------------------------------|----
-------------------------|
|-o-----------------------------|----
-------------------------|
|---6--0--0-0-0-0-3--0--0-0-0-0-|-3--
0--0-0-0-0-5--3--0-0-0-0-|
| - - - - - - - - - - - - - - - - - - -
| E (Q.) (H) (W)
|-------------------------------|----
-------------------------|
|-o-----------------------------|----
-------------------------|
|---3---------------------------|----
-------------------------|
|---3---------------------------|----
-------------------------|
|-o-1---------------------------|----
-------------------------|
|-------------------------------|----
-------------------------|

E E S S S S E E S S S S Q Q Q Q
|-----------------------------|------
-----------|
|-----------------------------|------
-----------|
|-----------------------------|-----4 ---3-------|
|-----------------------------|-5---4 ---3---3---|
|-----------------------------|-5---2 ---1---3---|
|-5--0--0-0-0-0-6--3--0-0-0-0-|-3----
-------1---|
| - - - - - - - - -
| (W) Q Q Q Q
|-----------------------------|------
-----------|
|-----------------------------|------
-----------|
|-----------------------------|-----4 ---3-------|
|-----------------------------|-5---4 ---3---3---|
|-----------------------------|-5---2 ---1---3---|
|-----------------------------|-3----
-------1---|

E E S S S S E E S S S S E E S S S S E E S S S S
|-----------------------------|------
-----------------------|
|-----------------------------|------
-----------------------|
|-----------------------------|------
-----------------------|
|-----------------------------|------
-----------------------|
|-----------------------------|------
-----------------------|
|-6--0--0-0-0-0-3--0--0-0-0-0-|-3--0-
-0-0-0-0-5--3--0-0-0-0-|
| - - - - - - - - - - - - - - - - - - -
| E (Q.) (H) (W)
|-----------------------------|------
-----------------------|
|-----------------------------|------
-----------------------|
|-3---------------------------|------
-----------------------|
|-3---------------------------|------
-----------------------|
|-1---------------------------|------
-----------------------|
|-----------------------------|------
-----------------------|

_____________________________________
_________________________________
|1.
| S S S S S S S S S S S S S S S S S S S S S S S S S S S S S S S S
|---------------------------------|--
---------------------------------|
|---------------------------------|--
-------------------------------o-|
|---------------------------------|--
---------------------------------|
|---------------------------------|--
---------------------------------|
|---------5-5-5-5-4-4-4-4---------|-4 -4-4-4-------------------------o-|
|-6-6-6-6-----------------5-5-5-5-|--
-------6-6-6-6-3-3-3-3-5-5-5-5---|
| - - - - - - - - - - - - - - - - - - - - - - - - - - - - - - - -
| (W) (W)
|---------------------------------|--
---------------------------------|
|---------------------------------|--
-------------------------------o-|
|---------------------------------|--
---------------------------------|
|---------------------------------|--
---------------------------------|
|---------------------------------|--
-------------------------------o-|
|---------------------------------|--
---------------------------------|

_____________________________________
_______________________________
|2.
| S S S S S S S S S S S S S S S S S S S S S S S S S S S S E (E)
|---------------------------------|--
-----------------------------|
|---------------------------------|--
-----------------------------|
|---------------------------------|--
-----------------------------|
|---------------------------------|--
-----------------------------|
|-----------------1-1-1-1-2-2-2-2-|-3 -3-3-3-2-2-2-2-0-0-0-0-7-----|
|-3-3-3-3-5-5-5-5-----------------|--
-----------------------0-----|
| - - - - - - - - - - - - - - - - - - - - - - - - - - - -
|
| S S S S S S S S S S S S S S S S S S S S S S S S S S S S E (E)
|---------------------------------|--
-----------------------------|
|---------------------------------|--
-----------------------------|
|---------------------------------|--
-----------------------------|
|---------------------------------|--
-----------------------------|
|-0-0-0-0-1-1-1-1-3-3-3-3-5-5-5-5-|-6 -6-6-6-5-5-5-5-3-3-3-3-0-----|
|---------------------------------|--
-----------------------------|
- - - - - - - - - - - - - - - - - - - - - - - - - - - -

Fig 2: (Both Guitars)
E E E S S E E S S E E E E E E E E E
|--------------------------|---------
--------|
|-o------------------------|---------
--------|
|--------------------------|---------
--------|
|--------------------------|---------
--------|
|-o-7h8p7------------------|-------5-
--------|
|---------0-0-0--0--3-0-0--|-3-2-0---
0-0-6-0-|
- - - - - - - - - -

E E E S S E E S S E E E E E E E E E
|------------------------|-----------
------|
|------------------------|-----------
------|
|------------------------|-----------
------|
|------------------------|-----------
------|
|-7h8p7------------------|---5-3-0-3-
2-0-2-|
|-------0-0-0--0--3-0-0--|-0---------
------|
- - - - - - - - -


FlunkCombatFlunkCombat

2008-12-24 22:59:56

Tuning: D Standard (D G C F A D)

Intro:
4/4
Fig 1:
E E S S S S E E S S S S E E S S S S E E S S S S
|-------------------------------|----
-------------------------|
|-o-----------------------------|----
-------------------------|
|-------------------------------|----
-------------------------|
|-------------------------------|----
-------------------------|
|-o-----------------------------|----
-------------------------|
|---6--0--0-0-0-0-3--0--0-0-0-0-|-3--
0--0-0-0-0-5--3--0-0-0-0-|
| - - - - - - - - - - - - - - - - - - -
| E (Q.) (H) (W)
|-------------------------------|----
-------------------------|
|-o-----------------------------|----
-------------------------|
|---3---------------------------|----
-------------------------|
|---3---------------------------|----
-------------------------|
|-o-1---------------------------|----
-------------------------|
|-------------------------------|----
-------------------------|

E E S S S S E E S S S S Q Q Q Q
|-----------------------------|------
-----------|
|-----------------------------|------
-----------|
|-----------------------------|-----4 ---3-------|
|-----------------------------|-5---4 ---3---3---|
|-----------------------------|-5---2 ---1---3---|
|-5--0--0-0-0-0-6--3--0-0-0-0-|-3----
-------1---|
| - - - - - - - - -
| (W) Q Q Q Q
|-----------------------------|------
-----------|
|-----------------------------|------
-----------|
|-----------------------------|-----4 ---3-------|
|-----------------------------|-5---4 ---3---3---|
|-----------------------------|-5---2 ---1---3---|
|-----------------------------|-3----
-------1---|

E E S S S S E E S S S S E E S S S S E E S S S S
|-----------------------------|------
-----------------------|
|-----------------------------|------
-----------------------|
|-----------------------------|------
-----------------------|
|-----------------------------|------
-----------------------|
|-----------------------------|------
-----------------------|
|-6--0--0-0-0-0-3--0--0-0-0-0-|-3--0-
-0-0-0-0-5--3--0-0-0-0-|
| - - - - - - - - - - - - - - - - - - -
| E (Q.) (H) (W)
|-----------------------------|------
-----------------------|
|-----------------------------|------
-----------------------|
|-3---------------------------|------
-----------------------|
|-3---------------------------|------
-----------------------|
|-1---------------------------|------
-----------------------|
|-----------------------------|------
-----------------------|

_____________________________________
_________________________________
|1.
| S S S S S S S S S S S S S S S S S S S S S S S S S S S S S S S S
|---------------------------------|--
---------------------------------|
|---------------------------------|--
-------------------------------o-|
|---------------------------------|--
---------------------------------|
|---------------------------------|--
---------------------------------|
|---------5-5-5-5-4-4-4-4---------|-4 -4-4-4-------------------------o-|
|-6-6-6-6-----------------5-5-5-5-|--
-------6-6-6-6-3-3-3-3-5-5-5-5---|
| - - - - - - - - - - - - - - - - - - - - - - - - - - - - - - - -
| (W) (W)
|---------------------------------|--
---------------------------------|
|---------------------------------|--
-------------------------------o-|
|---------------------------------|--
---------------------------------|
|---------------------------------|--
---------------------------------|
|---------------------------------|--
-------------------------------o-|
|---------------------------------|--
---------------------------------|

_____________________________________
_______________________________
|2.
| S S S S S S S S S S S S S S S S S S S S S S S S S S S S E (E)
|---------------------------------|--
-----------------------------|
|---------------------------------|--
-----------------------------|
|---------------------------------|--
-----------------------------|
|---------------------------------|--
-----------------------------|
|-----------------1-1-1-1-2-2-2-2-|-3 -3-3-3-2-2-2-2-0-0-0-0-7-----|
|-3-3-3-3-5-5-5-5-----------------|--
-----------------------0-----|
| - - - - - - - - - - - - - - - - - - - - - - - - - - - -
|
| S S S S S S S S S S S S S S S S S S S S S S S S S S S S E (E)
|---------------------------------|--
-----------------------------|
|---------------------------------|--
-----------------------------|
|---------------------------------|--
-----------------------------|
|---------------------------------|--
-----------------------------|
|-0-0-0-0-1-1-1-1-3-3-3-3-5-5-5-5-|-6 -6-6-6-5-5-5-5-3-3-3-3-0-----|
|---------------------------------|--
-----------------------------|
- - - - - - - - - - - - - - - - - - - - - - - - - - - -

Fig 2: (Both Guitars)
E E E S S E E S S E E E E E E E E E
|--------------------------|---------
--------|
|-o------------------------|---------
--------|
|--------------------------|---------
--------|
|--------------------------|---------
--------|
|-o-7h8p7------------------|-------5-
--------|
|---------0-0-0--0--3-0-0--|-3-2-0---
0-0-6-0-|
- - - - - - - - - -

E E E S S E E S S E E E E E E E E E
|------------------------|-----------
------|
|------------------------|-----------
------|
|------------------------|-----------
------|
|------------------------|-----------
------|
|-7h8p7------------------|---5-3-0-3-
2-0-2-|
|-------0-0-0--0--3-0-0--|-0---------
------|
- - - - - - - - -


FlunkCombatFlunkCombat

2008-12-24 23:00:03

Tuning: D Standard (D G C F A D)

Intro:
4/4
Fig 1:
E E S S S S E E S S S S E E S S S S E E S S S S
|-------------------------------|----
-------------------------|
|-o-----------------------------|----
-------------------------|
|-------------------------------|----
-------------------------|
|-------------------------------|----
-------------------------|
|-o-----------------------------|----
-------------------------|
|---6--0--0-0-0-0-3--0--0-0-0-0-|-3--
0--0-0-0-0-5--3--0-0-0-0-|
| - - - - - - - - - - - - - - - - - - -
| E (Q.) (H) (W)
|-------------------------------|----
-------------------------|
|-o-----------------------------|----
-------------------------|
|---3---------------------------|----
-------------------------|
|---3---------------------------|----
-------------------------|
|-o-1---------------------------|----
-------------------------|
|-------------------------------|----
-------------------------|

E E S S S S E E S S S S Q Q Q Q
|-----------------------------|------
-----------|
|-----------------------------|------
-----------|
|-----------------------------|-----4 ---3-------|
|-----------------------------|-5---4 ---3---3---|
|-----------------------------|-5---2 ---1---3---|
|-5--0--0-0-0-0-6--3--0-0-0-0-|-3----
-------1---|
| - - - - - - - - -
| (W) Q Q Q Q
|-----------------------------|------
-----------|
|-----------------------------|------
-----------|
|-----------------------------|-----4 ---3-------|
|-----------------------------|-5---4 ---3---3---|
|-----------------------------|-5---2 ---1---3---|
|-----------------------------|-3----
-------1---|

E E S S S S E E S S S S E E S S S S E E S S S S
|-----------------------------|------
-----------------------|
|-----------------------------|------
-----------------------|
|-----------------------------|------
-----------------------|
|-----------------------------|------
-----------------------|
|-----------------------------|------
-----------------------|
|-6--0--0-0-0-0-3--0--0-0-0-0-|-3--0-
-0-0-0-0-5--3--0-0-0-0-|
| - - - - - - - - - - - - - - - - - - -
| E (Q.) (H) (W)
|-----------------------------|------
-----------------------|
|-----------------------------|------
-----------------------|
|-3---------------------------|------
-----------------------|
|-3---------------------------|------
-----------------------|
|-1---------------------------|------
-----------------------|
|-----------------------------|------
-----------------------|

_____________________________________
_________________________________
|1.
| S S S S S S S S S S S S S S S S S S S S S S S S S S S S S S S S
|---------------------------------|--
---------------------------------|
|---------------------------------|--
-------------------------------o-|
|---------------------------------|--
---------------------------------|
|---------------------------------|--
---------------------------------|
|---------5-5-5-5-4-4-4-4---------|-4 -4-4-4-------------------------o-|
|-6-6-6-6-----------------5-5-5-5-|--
-------6-6-6-6-3-3-3-3-5-5-5-5---|
| - - - - - - - - - - - - - - - - - - - - - - - - - - - - - - - -
| (W) (W)
|---------------------------------|--
---------------------------------|
|---------------------------------|--
-------------------------------o-|
|---------------------------------|--
---------------------------------|
|---------------------------------|--
---------------------------------|
|---------------------------------|--
-------------------------------o-|
|---------------------------------|--
---------------------------------|

_____________________________________
_______________________________
|2.
| S S S S S S S S S S S S S S S S S S S S S S S S S S S S E (E)
|---------------------------------|--
-----------------------------|
|---------------------------------|--
-----------------------------|
|---------------------------------|--
-----------------------------|
|---------------------------------|--
-----------------------------|
|-----------------1-1-1-1-2-2-2-2-|-3 -3-3-3-2-2-2-2-0-0-0-0-7-----|
|-3-3-3-3-5-5-5-5-----------------|--
-----------------------0-----|
| - - - - - - - - - - - - - - - - - - - - - - - - - - - -
|
| S S S S S S S S S S S S S S S S S S S S S S S S S S S S E (E)
|---------------------------------|--
-----------------------------|
|---------------------------------|--
-----------------------------|
|---------------------------------|--
-----------------------------|
|---------------------------------|--
-----------------------------|
|-0-0-0-0-1-1-1-1-3-3-3-3-5-5-5-5-|-6 -6-6-6-5-5-5-5-3-3-3-3-0-----|
|---------------------------------|--
-----------------------------|
- - - - - - - - - - - - - - - - - - - - - - - - - - - -

Fig 2: (Both Guitars)
E E E S S E E S S E E E E E E E E E
|--------------------------|---------
--------|
|-o------------------------|---------
--------|
|--------------------------|---------
--------|
|--------------------------|---------
--------|
|-o-7h8p7------------------|-------5-
--------|
|---------0-0-0--0--3-0-0--|-3-2-0---
0-0-6-0-|
- - - - - - - - - -

E E E S S E E S S E E E E E E E E E
|------------------------|-----------
------|
|------------------------|-----------
------|
|------------------------|-----------
------|
|------------------------|-----------
------|
|-7h8p7------------------|---5-3-0-3-
2-0-2-|
|-------0-0-0--0--3-0-0--|-0---------
------|
- - - - - - - - -


FlunkCombatFlunkCombat

2008-12-24 23:00:31

C======================3


FlunkCombatFlunkCombat

2008-12-24 23:00:39

Cock